» » »

Red Hot Chili Peppers, Fortune Faded Tabs (ver.3)

Artists:  A B C D E F G H I J K L M N O P Q R S T U V W X Y Z # 

Fortune Faded Tabs (ver.3)

Red Hot Chili Peppers Tabs
 Rating:
4/5 (4 votes)
Fortune Faded lessons Tabs too difficult? Try these video lessons and learn fast
                Tuning: Standard eBGDAE

INTRO: (play very fast)
e------------------
B------------------
G------------------
D-4444444444444444-
A-4444444444444444-
E-2222222222222222-

VERSE: 
e-------------------------------------------------------------------------
B----------------------------------------------------------14-14-14-------
G-----11----------------11---------------14-11-14-11-14-11----------------
D-9------11--------9-9-----12-11------------------------------------------
A-------------------------------------------------------------------------
E-------------------------------------------------------------------------

e-------------------------------------------------------------------------
B-------------------------------------------------------------------------
G-----11----------------11---------------14-11----14-11\------------------
D-9------11--------9-9-----12-11------------------------------------------
A-------------------------------------------------------------------------
E-------------------------------------------------------------------------

FILL:

    D	A   
e-2-2-2----------
B-3-3-3----2-2-2-
G-2-2-2----2-2-2-
D----------2-2-2-
A----------------
E----------------

CHORUS: 

  A G Bm
e---3---
B-2-0-3-
G-2-0-4-
D-2-0-4-
A---2-2-
E---3---

That´s it... please rate it! 

Thanks, bye...
            
Submit corrections

comments powered by Disqus
↑ Back to top | Red Hot Chili Peppers Tabs for Fortune Faded. Lyrics for acoustic guitar and electric guitar. Tablatures and chords are parodies/interpretations of the original songs. You may use it for private study, scholarship, research or language learning purposes only