» » »

Fortune Faded Tabs (ver.1)

Artists:  A B C D E F G H I J K L M N O P Q R S T U V W X Y Z # 

Fortune Faded Tabs (ver.1)

Red Hot Chili Peppers
Rating:
0/5 (0 votes)

Tabs too difficult? Try these video lessons and learn fast.
                PROPS GO TO: :: LOW BATTERY ::

Intro=20

|----------------|
|----------------|
|--3-3-3-3-3-3-3-|  ...and so on for a short while...
|--4-4-4-4-4-4-4-|
|--4-4-4-4-4-4-4-|
|--2-2-2-2-2-2-2-|


Pre-verse

                            1st ending                   2nd ending
|------------------------| |----------------------9---| = |------------------|
|------------------------| |--10----10----10----------| = |--10------10------|
|-----11---------11------| |-----11----11-----11------| = |------11------11--|
|--9-----11--9-9----11-9-| |--------------------------| = |------------------|
|------------------------| |--------------------------| = |------------------|
|------------------------| |--------------------------| = |------------------|


Verse=20

  x 2
|------------------------------------------------------------------------= --|
|-------------------------------------------------------------11-11-11---= --|
|--4-4-x-x-x-x--4-4-x-x-x-x--4-4-x-x-x-x--4-4-x-x-x-x--7-7-7--11-11-11---= --|
|--4-4-x-x-x-x--4-4-x-x-x-x--4-4-x-x-x-x--4-4-x-x-x-x--7-7-7--11-11-11---= --|
|--2-2-x-x-x-x--2-2-x-x-x-x--2-2-x-x-x-x--2-2-x-x-x-x--5-5-5--9--9--9----= --|
|------------------------------------------------------------------------= --|


Ending of Verse


                            1st ending                   2nd ending
|------------------------| |----------------------9---| = |-----------9------|
|------------------------| |--10----10----10----------| = |--10--------------|
|-----11---------11------| |-----11----11-----11------| = |------11----------|
|--9-----11--9-9----11 9-| |--------------------------| = |------------------|
|------------------------| |--------------------------| = |------------------|
|------------------------| |--------------------------| = |------------------|


Chorus

  x 3                               4th time=20
|------------7-7-7-7-7-7-7-7-----| |------------7-7--7-7--|
|--7-7-------7-7-7-7-7-7-7-7-----| |--7-7-------7-7--7-7--|
|--7-7--6-6--8-8-8-8-8-8-8-8-----| |--7-7--6-6--8-8--8-8--|
|--7-7--7-7--9-9-9-9-9-9-9-9-----| |--7-7--7-7--9-9--9-9--|
|--5-5--7-7--9-9-9-9-9-9-9-9-----| |--5-5--7-7--9-9--9-9--|
|-------5-5--7-7-7-7-7-7-7-7-----| |-------5-5--7-7--7-7--|


Pre-verse

                            1st ending                   2nd ending
|------------------------| |----------------------9---| = |------------------|
|------------------------| |--10----10----10----------| = |--10------10------|
|-----11---------11------| |-----11----11-----11------| = |------11------11--|
|--9-----11--9-9----11-9-| |--------------------------| = |------------------|
|------------------------| |--------------------------| = |------------------|
|------------------------| |--------------------------| = |------------------|
            
Tabs too difficult? Try these video lessons and learn fast.


comments powered by Disqus
↑ Back to top | Tablatures and chords are parodies/interpretations of the original songs. You may use it for private study, scholarship, research or language learning purposes only