>
 >
Flea

Flea Bass Tabs

Red Hot Chili Peppers - Flea chords, tabs, tablatures, lyrics

Guitar lessons | Add/correct | Request | Top 50 tabs Artists:  A B C D E F G H I J K L M N O P Q R S T U V W X Y Z 0-9

Flea Bass Tabs – Red Hot Chili Peppers

CD, Sheet music, Poster

Do you like Flea? Share with your friends now
Bass Tabs
#------------------------------------------------------------------------------##

                            RARE BASS SOLO (Bassline)
                      As recorded by Red Hot Chili Peppers

Words by N/A

Music by Flea
Arranged by Jake Brown

Gtr I (E A D G) - 'Untitled'
Gtr II (E A D G) - 'Untitled'

 Beginning
  Q=140
 4/4
  Gtr I
  >                              >
  W          +W           +H     H
|-9--------|-(9)--------|-(9)----9----|
|-7--------|-(7)--------|-(7)----7----|
|----------|------------|-------------|
|----------|------------|-------------|


                        Gtr II
  +W           +H.       Q     S S S S S S S S S S E S S S S
|-(9)--------|-(9)-----------|-----------------------5h7-----|
|-(7)--------|-(7)-----------|-------------------5-----------|
|------------|---------------|-------------5h7-x-------------|
|------------|----------12\--|-0---0-0---0---------0-----0---|


  S S S S S S S S S S S E S E   S S S S S S S S S S E S S S S
|---------------------------5-|-----------------------5h7-----|
|---------------------x-5-----|-------------------5-----------|
|-----------------5h7---------|-------------5h7-x-------------|
|-0-0---0---0-0-----------0---|-0---0-0---0---------0-----0---|


  S S S S S S S S S S S S S S E
|--------------------------------|
|--------------------------------|
|-----------------5---5-5---5S7--|
|-0---0-0---0-0------------------|


  S S S S E S S S S E S S S S   S S S S S S S S S S S E S E
|---------------------5h7-----|---------------------------5-|
|-----------------5-----------|---------------------x-5-----|
|-----------5h7-x-------------|-----------------5h7---------|
|-0---0-0-----------0-----0---|-0-0---0---0-0-----------0---|


  S S S S S S S S S S S S S S E
|---------------------------------|
|---------------------------------|
|-----------------5---5-5---5S7---|
|-0---0-0---0-0-------------------|


    S S S S S S S S S S S E S S S  3x S S S S S S S S S  E. S  E.
||---------------------------------||-----------------------------|
||o-----------------------7---7h9-o||-------------------10----12--|
||o-----------------7h9-x---x-----o||-----------------------------|
||--5s7-7-7---7-7------------------||-7---7-7---7-7---x-----x-----|


    S S S  e  e S  S  S S  e S  S  S   7x
||-------------------------------------||
||o-------12-10-----------10---10h12--o||
||o-------------x-10h12-x----x--------o||
||--0h5-x------------------------------||


  S S S  e  e S  S  S S  E  +E.
|-------------------------------|
|-------12-10-----------10-(10)-|
|-------------x-10h12-x---------|
|-0h5-x-------------------------|


    S S S  e  e E  E  E E  E  3x S S S  e  e S  S  S S  Q   +S
||----------------------------||--------------------------------|
||o-------13-11-----------11-o||-------13-11-----------11--(11)-|
||o-------------x-11h13-x----o||-------------x-11h13-x----------|
||--0h6-x---------------------||-0h6-x--------------------------|


    S S S  e  e S  S  S S  e S  S  S  3x
||------------------------------------||
||o-------12-10-----------10---10h12-o||
||o-------------x-10h12-x----x-------o||
||--0h5-x-----------------------------||


  S S S  e  e S  S  S S  E  +E.    +W
|-------------------------------|---------|
|-------12-10-----------10-(10)-|-(10)----|
|-------------x-10h12-x---------|---------|
|-0h5-x-------------------------|---------|


 Middle
  Gtr I
  E Q  E. E. E.  S    +E  E.  E.  E  E  Q     W
|-5S7--9--7--9--10-|-(10)-9--10--12-10-12--|-14----|
|------------------|-----------------------|-------|
|------------------|-----------------------|-------|
|------------------|-----------------------|-------|


   W                   W             W
|-14pb14.5=========|=(14)r=======|==14b14.5=====|
|------------------|-------------|--------------|
|------------------|--12---------|-(12)---------|
|------------------|-------------|--------------|


    W             W                  W
|-(14)r=======|==14b14.5=========|=(14)----|
|-------------|------------------|---------|
|--12---------|-(12)-------------|--12\----|
|-------------|------------------|---------|


  Gtr II
  S S S  e  e S  S  S S  e S  S  S
|----------------------------------|
|-------12-10-----------10---10h12-|
|-------------x-10h12-x----x-------|
|-0h5-x----------------------------|


  S S S  e  e S  S  S S  E  +E.   S S S  e  e S  S  S S  e S  S  S
|-------------------------------|----------------------------------|
|-------12-10-----------10-(10)-|-------12-10-----------10---10h12-|
|-------------x-10h12-x---------|-------------x-10h12-x----x-------|
|-0h5-x-------------------------|-0h5-x----------------------------|


  S S S  e  e S  S  S S  E  +E.
|-------------------------------|
|-------12-10-----------10-(10)-|
|-------------x-10h12-x---------|
|-0h5-x-------------------------|


    S S S  e  e S  S  S S  e S  S  S  3x S S S  e  e S  S  S S  E  +E.
||------------------------------------||-------------------------------|
||o-------12-10-----------10---10h12-o||-------12-10-----------10-(10)-|
||o-------------x-10h12-x----x-------o||-------------x-10h12-x---------|
||--0h5-x-----------------------------||-0h5-x-------------------------|


               End
              Q=70
                Gtr I
   +W           E E E E E E E E   E E E E E E E E
|-------------|-5-7---------2-0-|-3---7-5-----0-3-|
|-(10)--------|-----0-2-3-0-----|---0-----2-3-----|
|-------------|-----------------|-----------------|
|-------------|-----------------|-----------------|


                                    Q=80
  E E E E E E E E   E E E E E E E E   E E E E E E E E
|-2-----------7-0-|-3---3-2-0-7-5---|-------3-2-0-7-5-|
|---0-3-5-3-0-----|---0-----------3-|-2-0-0-----------|
|-----------------|-----------------|-----------------|
|-----------------|-----------------|-----------------|


  Q=90            Q=105             Q=120
  E E E E E E E E   E E E E E E E E   E E E E E E E E
|-2-3-------7-5-2-|-3-2---7-5-2-0-3-|-2-0-------3-2-0-|
|-----0-3-2-------|-----0-----------|-----3-2-0-------|
|-----------------|-----------------|-----------------|
|-----------------|-----------------|-----------------|


  Q=130                        Q=140
                               Gtr II
  E E E E E E E E   +W           H    Q  Q
|-7-5-3-2-0-------|------------|------------|
|-----------3-2-0-|-(0)--------|------------|
|-----------------|------------|------------|
|-----------------|------------|-0----0--0--|


                                           Gtr I
  Q  E E S S S S S S S S   S S S S H.        W
|------------------------|-----------------|---------|
|------------------------|-----------------|-7b8r====|
|------------------------|-----------------|---------|
|-0--0-0-0-0-0-0-0-0-0-0-|-0-0-0-0-0-------|---------|


  +W           W          +W
|------------|-9--------|-(9)----|
|-(7)--------|-7--------|-(7)----|
|------------|----------|--------|
|------------|----------|--------|


             Gtr II
  +W           S S S S S S S S S S E S S S S   S S S S S S S S S S S E S E
|-(9)--------|-----------------------5h7-----|---------------------------5-|
|-(7)--------|-------------------5-----------|---------------------x-5-----|
|------------|-------------5h7-x-------------|-----------------5h7---------|
|------------|-0---0-0---0---------0-----0---|-0-0---0---0-0-----------0---|


  S S S S S S S S S S E S S S S
|-----------------------5h7-----|
|-------------------5-----------|
|-------------5h7-x-------------|
|-0---0-0---0---------0-----0---|


  S S S S S S S S S S S E S E   S S S S E S S S S E S S S S
|---------------------------5-|---------------------5h7-------|
|---------------------x-5-----|-----------------5-------------|
|-----------------5h7---------|-----------5h7-x---------------|
|-0-0---0---0-0-----------0---|-0---0-0-----------0-----0-----|


  S S S S S S S S S S S E S E
|---------------------------5-|
|---------------------x-5-----|
|-----------------5h7---------|
|-0-0---0---0-0-----------0---|


    S S S S S S S S S S S E S S S  7x S S S S S S S S S Q.   +S
||----------------------------5h7--||----------------------------|
||o---------------------x-5-------o||----------------------------|
||o-----------------5-7-----------o||-----------------5S7----(7)-|
||--0---0-0---0-0-----------0------||-0---0-0---0-0--------------|


  W          +W           +W
|----------|------------|--------*|
|----------|------------|--------*|
|----------|------------|--------*|
|-5--------|-(5)--------|-(5)----*|


Duration Legend
---------------
W - whole; H - half; Q - quarter; E - 8th; S - 16th; T - 32nd; X - 64th; a - acciaccatura
+ - note tied to previous; . - note dotted; .. - note double dotted
Uncapitalized letters represent notes that are staccato (1/2 duration)
Irregular groupings are notated above the duration line
Duration letters will always appear directly above the note/fret number it represents the
duration for.  Duration letters with no fret number below them represent rests.  Multi-
bar rests are notated in the form Wxn, where n is the number of bars to rest for.  Low
melody durations appear below the staff

Tablature Legend
----------------
 h   - hammer-on
 p   - pull-off
 b   - bend
 pb  - pre-bend
 r   - bend release (if no number after the r, then release immediately)
 /\  - slide into or out of (from/to "nowhere")
 s   - legato slide
 S   - shift slide
  - natural harmonic
[n]  - artificial harmonic
n(n) - tapped harmonic
 ~   - vibrato
 tr  - trill
 T   - tap
 TP  - trem. picking
 PM  - palm muting
\n/  - tremolo bar dip; n = amount to dip
 \n  - tremolo bar down
 n/  - tremolo bar up
/n\  - tremolo bar inverted dip
 =   - hold bend; also acts as connecting device for hammers/pulls
 <>  - volume swell (louder/softer)
 x   - on rhythm slash represents muted slash
 o   - on rhythm slash represents single note slash

Misc Legend
-----------
 |  - bar
||  - double bar
||o - repeat start
o|| - repeat end
*|  - double bar (ending)
 :  - bar (freetime)
 $  - Segno
 &  - Coda
Tempo markers -  = BPM(8/16=s8/s16), where s8 = swing 8ths, s16 = swing 16ths





Comments


Popular Red Hot Chili Peppers tabs & chords
Cabron 3 Bass Tabs
Cant Stop 3 Bass Tabs
Grand Pappy Du Plenty Bass Tabs
Instrumental #1 1 Bass Tabs
Cmon Girl Chords
Cant Stop Riff Tabs
Especially In Michigan 3 Tabs
Fight Like A Brave 3 Tabs
Magic Johnson Tabs
Throw Away Your Television 1 Tabs


Song lyrics



↑ Back to top | Tablatures and chords are parodies/interpretations of the original songs. You may use it for private study, scholarship, research or language learning purposes only
© 2014 AZChords.com Contact us | Privacy policy | DMCA | Add/correct tabs | Request tabs | Top 50 tabs