» » »

Red Hot Chili Peppers, Fight Like A Brave Bass tabs (ver.5)

Artists:  A B C D E F G H I J K L M N O P Q R S T U V W X Y Z # 

Fight Like A Brave Bass tabs (ver.5)

Red Hot Chili Peppers Tabs
 Rating:
4/5 (4 votes)
Fight Like A Brave lessons Tabs too difficult? Try these video lessons and learn fast
                Fight Like a Brave
Bass Tabs


X= Ghost Note
/= Slide

Verse:

G|--------5----6--|--------5----6--|
D|---7----7----7--|---7----7----7--|
A|-0---00---00----|-0---00---00----|
E|----------------|----------------|

G|--------5----6--|----------------|
D|---7----7----7--|----------------|
A|-0---00---00----|----5-----------|
E|----------------|--3-------------|

1st Chorus

G|----------------|----------------|
D|--x9-x9-7-------|--x9-x9-7-------|
A|----------9-5---|----------9-----|
E|-7------------5-|-7----------5-6-|

G|----------------|----------------|
D|--x9-x9-7-------|--x9------------|
A|----------9-5---|----------------|
E|-7------------5-|-7---5-5-0-0----|

2nd Chorus

G|----------------|----------------|
D|--x9-x9-7-------|--x9-x9-7-------|
A|----------9-5---|----------9-----|
E|-7------------5-|-7----------5-6-|

G|----------------|-----x11-9-7-9-7-----|
D|--x9-x9-7-------|--x9-------------9-7-|
A|----------9-5---|---------------------|
E|-7------------5-|-7-------------------|

G|----------------|----------------|
D|--x9-x9-7-------|--x9-x9-7-------|
A|----------9-5---|----------9-----|
E|-7------------5-|-7----------5-6-|

G|----------------|----------------|
D|--x9-x9-7-------|--x9------------|
A|----------9-5---|----------------|
E|-7------------5-|-7---5-5-0-0----|

Bridge (Bass Solo + Guitar Solo)

G|--------7-------|--------7------------------|
D|---6---------7--|---6---------7----7----7---|
A|-----77---77----|-----77---77---77---55---4-|
E|-0--------------|-0-------------------------|

G|--------7-------|--------7------------------|
D|---6---------7--|---6---------7----7----7---|
A|-----77---77----|-----77---77---77---55---4-|
E|----------------|-0-------------------------|

G|--------7-----------|--------7------------------|
D|---6---------7------|---6---------7----7----7---|
A|-----77---77--------|-----77---77---77---55---4-|
E|---------------15/--|-0-------------------------|

G|--------7-------|--------7------------------|
D|---6---------7--|---6---------7----7----7---|
A|-----77---77----|-----77---77---77---55---4-|
E|----------------|-0-------------------------|

Verse Fills

G|--------5----6--|--------5----6-----|
D|---7----7----7--|---7----7----7-----|
A|-0---00---00----|-0---00---00---/12-|
E|----------------|-------------------|

G|--------5----6--|----------------|
D|---7----7----7--|----------------|
A|-0---00---00----|----5-----------|
E|----------------|--3-------------|

G|--------5----6-6-6-|--------5----6-----------|
D|---7----7----7-6-6-|---7----7----7-------6---|
A|-0---00---00---4-4-|-0---00---00---5h7-x---7-|
E|-------------------|-------------------------|

G|--------5----6--|----------------|
D|---7----7----7--|----------------|
A|-0---00---00----|----5-----------|
E|----------------|--3-------------|

G|--------5----6-6-6-|--------5----6-----|
D|---7----7----7-6-6-|---7----7----7-----|
A|-0---00---00---4-4-|-0---00---00---/12-|
E|-------------------|-------------------|

G|--------5----6--|-12-12-12-12-x-14-|
D|---7----7----7--|-12-12-12-12-x-12-|
A|-0---00---00----|-10-10-10-10-x----|
E|----------------|------------------|


With reservation for potential errors, tabbing is hard work!
Thanks for your support & please don't forget to subscribe to the Gentlemen's Bass Club 
channel! ;)
            
Submit corrections

comments powered by Disqus
↑ Back to top | Red Hot Chili Peppers Bass for Fight Like A Brave. Lyrics for acoustic guitar and electric guitar. Tablatures and chords are parodies/interpretations of the original songs. You may use it for private study, scholarship, research or language learning purposes only