» » »

Fela's Cock Tabs (ver.2)

Artists:  A B C D E F G H I J K L M N O P Q R S T U V W X Y Z # 

Fela's Cock Tabs (ver.2)

Red Hot Chili Peppers
Rating:
0/5 (0 votes)

Hard to play? Try these video lessons and learn fast.
                

I think this song is played with a slight chorus...to get that
bright clean sound....anyway, I´ve been working on this one
for a while and this is the newer version...I think its´ kind of close,
but if you have any corrections you could allways make new 
version...or if somebody maybe could figure out the bass
part it would be great. I´m pretty shure this song is in the  
key of G

Fig.1
                                           End
E-|---------------------------------------|----------------------------------|
B-|---------------------------------------|----------------------------------|
G-|--*---------------------------------*--|----------------------------------|
D-|--*---------------------------------*--|----------------------------------|
A-|----10--10--10--10--10--10--10--10-----|--10--10--10--10--10--10--10--10--|
E-|---------------------------------------|----------------------------------|
       |P.M.------------------------|        

Instead of playing the G on the 10th fret on the A-string, you could 
play the G on 5th fret on the D-string if you think that sounds better.


Fig. 2      In this part, I´m not shure if you should play the notes in (15)

E-|--17-15--------------------------------------|--17-15----------------------------18-18--|
B-|--17-15-x-x-15-x-x-17-x-x-15-x-x--17---------|--17-15-x-x-15-x-x-17-x-x-15--x-x--18-18--|
G-|--15-15-x-x-15-x-x-17-x-x-15-x-x--17---------|--15-15-x-x-15-x-x-17-x-x-15--x-x---------|
D-|------------15-x-x-17-x-x-15-x-x--17--x------|--------x-x-15-x-x-17-x-x-15--x-x---------|
A-|--------------------------------------x------|------------------------------------------|
E-|-----------------------------------------15--|------------------------------------------|

E-|--17-15--------------------------------------|--17-15--------------------------------------|
B-|--17-15-x-x-15-x-x-17-x-x-15-x-x--17---------|--17-15-x-x-15-x-x-17-x-x-15--x-x--x-x--x-x--|
G-|--15-15-x-x-15-x-x-17-x-x-15-x-x--17---------|--15-15-x-x-15-x-x-17-x-x-15--x-x--x-x--x-x--|
D-|------------15-x-x-17-x-x-15-x-x--17--x------|--------x-x-15-x-x-17-x-x-15--x-x--x-x--x-x--|
A-|--------------------------------------x------|---------------------------------------------|
E-|-----------------------------------------15--|---------------------------------------------| x2


I don´t know if you should play the the notes on the A and D-string
in this part, but I think it sounds good both ways.

Fig. 3                                   End  
                    
      G9    F9         C9                     G9
E-|----10----8----|-----3--------15\----|-----10----------|
B-|----10----8----|-----3--------15\----|-----10----------|
G-|----10----8----|-----3--------15\----|-----10----------|
D-|-----9----7----|-----2---------------|------9----------|
A-|----10----8----|-----3---------------|-----10----------|
E-|---------------|---------------------|-----------------|

Sometimes it ends with the G9 chord and sometimes not...but anyway
go back to Fig.1 and palm-mute after this bit wich I called Fig.3

Last thing is:

E-|------------------------------------|
B-|---------8-------8----11--8---------|
G-|----10b-----10b--------------10b----|
D-|------------------------------------|
A-|------------------------------------|
E-|------------------------------------|
            
Hard to play? Try these video lessons and learn fast. | Correct




comments powered by Disqus
↑ Back to top | Tablatures and chords are parodies/interpretations of the original songs. You may use it for private study, scholarship, research or language learning purposes only