» » »

Fela's Cock Bass tabs (ver.1)

Artists:  A B C D E F G H I J K L M N O P Q R S T U V W X Y Z # 

Fela's Cock Bass tabs (ver.1)

Red Hot Chili Peppers
Rating:
0/5 (0 votes)

Hard to play? Try these video lessons and learn fast.
                
Such a groove... it requires a pick.

G--------------------------------------------------------|
D--------------------------------------------------------|
A--------------------------------------------------------|
E-15-15-15-15-15-15-15-15-\-8-8-8-8-8-8-8-8--------------|

Then..a "bridge"-

G--------------------------------------------------------|
D--------------------------------------------------------|
A--------------------------------------------------------|
E-15--13-15-13-13--8-8-8-8--15--13-15-13-13--8-8-8-8-13--| x2

Another different part

G--------------------------------------------------------|
D--------------------------------------------------------|
A--------------------------------------------------------|
E-15--13---8---15----15--13---8---15---------------------|

Little Lick somewhere in the song: ~ note -bend that note half step up

G--------------------------------------------------------|
D--------------------------------------------------------|
A-------------------------13-13-13--15~-15-13------------|
E-15-15-15-15-15-15-15-15--------------------15----------|

Ending

G--------------------------------------------------------|
D-------------------3-4-5--------------------------------|
A-----2-2-3-3-4-4-5--------------------------------------|
E-3-3---------------------3-/15\-------------------------|

Thats`s it. Don`t be lazy and just stare at those numbers, connect all pieces
together and listen to the song carefouly. Tabs are here to help.
            
Hard to play? Try these video lessons and learn fast. | Correct




comments powered by Disqus
↑ Back to top | Tablatures and chords are parodies/interpretations of the original songs. You may use it for private study, scholarship, research or language learning purposes only