» » »

Factory Of Faith Bass tabs (ver.4)

Artists:  A B C D E F G H I J K L M N O P Q R S T U V W X Y Z # 

Factory Of Faith Bass tabs (ver.4)

Red Hot Chili Peppers
Rating:
0/5 (0 votes)

Hard to play? Try these video lessons and learn fast.
                this is the first thing ive tabbed and posted so its probably not awesomely acurate, but 
i do thing its a start of a pretty cool song. so enjoy...

intro/ Verse,
it keeps shifting between these two main riffs,

G-------------------------------|----------------3----5---5-|
D------3-3---------5-------3-5--|-------3-3-----------------|
A--5-5----------3-----3-5-------|--5-5---------3----3---3---|
E-----------6~------------------|-----------6---------------|

G-------------------------------|---------------------------|
D------7-7---------5-------3-5--|-------7-7-----------------|
A--5-5----------3-----3-5-------|--5-5---------------3-3----|
E-----------6-------------------|-----------6--6--3---------|


chorus,
its kinda summit like this...

G------------------|-----------------|-----------------|
D------------------|-----------------|-----------------|
A--5-5-5-7-7-7-1-1-|1/3-3-3-3-3-3-3-3|-3-3-3-3-3-3-3-3-|
E------------------|-----------------|-----------------|


outro (2.30)

G-----------------------|-666-555-666-555-------|
D-777-555-777-555-77-55-|-----------------77-55-|
A-----------------------|-----------------------|
E-----------------------|-----------------------|

G-----------------------|-666-555-7~-6-5-----|-----------------|
D-777-555-777-555-77-55-|----------------7-5-|-7-7-------------|
A-----------------------|--------------------|-----------------|
E-----------------------|--------------------|-----5-5-5-5-5-5-|

thats the basics i beleive :) enjoy
            
Hard to play? Try these video lessons and learn fast. | Correct




comments powered by Disqus
↑ Back to top | Tablatures and chords are parodies/interpretations of the original songs. You may use it for private study, scholarship, research or language learning purposes only