array
(
    
'emitremmus2' => 'emitremmus2'
    'redhotchilipeppers' 
=> 'redhotchilipeppers'
)
Emit Remmus Bass tabs (ver. 4) by Red Hot Chili Peppers @ AZ CHORDS.COM
» » »

Emit Remmus Bass tabs (ver.4)

Artists:  A B C D E F G H I J K L M N O P Q R S T U V W X Y Z # 

Emit Remmus Bass tabs (ver.4)

Red Hot Chili Peppers
Rating:
0/5 (0 votes)

Hard to play? Try these video lessons and learn fast.
                Emit Remmus

By the Red Hot Chili Peppers

Intro
G|-------------------|---------------------| (x4)
D|--------6p5h6p5h6--|--------6p5h6p5h6----|
A|--6-8-8------------|--6-8-8--------------|
E|-------------------|------------------6--|

Verse
G|-------------------|---------------------| (x4)
D|--------6p5h6p5h6--|--------6p5h6p5h6----|
A|--8-6-6------------|--6-8-8--------------|
E|-------------------|-------------------6-|

G|----------------------|-----------------------| (x4)
D|--------6p5h6p5h6-6-6-|--------6p5h6p5h6------|
A|--8-6-6---------------|--6-8-8----------------|
E|----------------------|-------------------6-6-|

Chorus
G|------------------|----------------------| (x4) D|------------------|----------------------| A|--6h8-8-8-/11-11--|--6h8-8-8-/11-11------| E|------------------|-----------------6-6--| Intro (x1) Verse Chorus Interlude (with some variations the 2:nd time) (x2) G|-------------|-------------|-------------|---------------| D|-------------|-------------|-------------|---------------| A|--3--3--3-3--|-------------|--1--1--1-1--|---------------| E|-------------|--4--4--4-4--|-------------|--1-1--1--1-1--| G|----------------|--------------|-------------|---------------| D|-------0-1-0----|--------------|-------------|---------------| A|--3--3-------3--|----6--5-5-3--|--1--1--1-1--|---------------| E|----------------|--4-----------|-------------|--1-1--1--1-1--| Intro (x1) Verse Chorus (x8)
Hard to play? Try these video lessons and learn fast. | Correct




comments powered by Disqus
↑ Back to top | Tablatures and chords are parodies/interpretations of the original songs. You may use it for private study, scholarship, research or language learning purposes only