» » »

Easily Bass tabs (ver.2)

Artists:  A B C D E F G H I J K L M N O P Q R S T U V W X Y Z # 

Easily Bass tabs (ver.2)

Red Hot Chili Peppers
Rating:
0/5 (0 votes)
Tabs too difficult? Try these video lessons and learn fast.
                Red Hot Chili Peppers

Intro:

G|----------------5---------------------------------|
D|--------5-----7---7--3-3--5-7--7-7-------5-7p5----|
A|------7---5------------------------5h7---------7--|
E|--5-----------------------------------------------|

1st Verse:
(2x)

G|-------------------------5-----------------------------------}
D|----------5------------7----7-0-3-3--5-7--7-7-7-----5-7p5----}
A|--------7----5--5-5-5--------------------------5h7-------7---}
E|--5-5-5------------------------------------------------------}
                                                               ]
G|-------------------------5-----5-----------------------------}
D|----------5-----------7----0-3---7-7-7-7-7-5---5-------------}
A|--------7---5--5-5-5-5-----------------------7---------------}
E|--5-5-5------------------------------------------------------}

Than this

G|-------------------------5-----------------------------------|
D|----------5------------7----7-0-3-3--5-7--7-7-7-----5-7p5----|
A|--------7----5--5-5-5--------------------------5h7-------7---|
E|--5-5-5------------------------------------------------------|

G|-------------------------5-----5----------------------------|
D|----------5-----------7----0-3---7-7-7-7-7-7-7-7------------|
A|--------7---5--5-5-5-5--------------------------------------|
E|--5-5-5-----------------------------------------------------|


1st Chorus:

G|-----9----------------------------------------------------------|
D|-------10---10--------5--------3--------------------------------|
A|----------10--------5--------3----------------------------------|
E|---8--------------3-----3--1-----1------------------------------|

G|-----9-----------------------------------------------------------|
D|-------10---10-------5-------3-----------------------------------|
A|----------10-------5-------3---3---------------------------------|
E|---8-------------3-----3-1------1--------------------------------|

G|-------------4------------------------4-5-4--------------------------|
D|--------5------5----------3-----------------5----------3-------------|
A|-----7-----------5------3---3----7-----------(5)------3--------------|
E|---5---------------3--1--------5-----------------3--1-----1----------|

2nd Verse (Same as First Verse):
(2x)

G|-------------------------5-----------------------------------}
D|----------5------------7----7-0-3-3--5-7--7-7-7-----5-7p5----}
A|--------7----5--5-5-5--------------------------5h7-------7---}
E|--5-5-5------------------------------------------------------}

G|-------------------------5-----5-----------------------------}
D|----------5-----------7----0-3---7-7-7-7-7-5---5-------------}
A|--------7---5--5-5-5-5-----------------------7---------------}
E|--5-5-5------------------------------------------------------}

Than this

G|-------------------------5-----------------------------------|
D|----------5------------7----7-0-3-3--5-7--7-7-7-----5-7p5----|
A|--------7----5--5-5-5--------------------------5h7-------7---|
E|--5-5-5------------------------------------------------------|

G|-------------------------5-----5-----------------------------|
D|----------5-----------7----0-3---7-7-7-7-7-7-7-7-------------|
A|--------7---5--5-5-5-5---------------------------------------|
E|--5-5-5------------------------------------------------------|


2nd Chorus:
 (2x)

G|-----9----------------------------------------------------------|
D|-------10---10--------5--------3--------------------------------|
A|----------10--------5--------3----------------------------------|
E|---8--------------3-----3--1-----1------------------------------|

G|-----9-----------------------------------------------------------|
D|-------10---10-------5-------3-----------------------------------|
A|----------10-------5-------3---3---------------------------------|
E|---8-------------3-----3-1------1--------------------------------|

G|-------------4------------------------4-5-4--------------------------|
D|--------5------5----------3-----------------5----------3-------------|
A|-----7-----------5------3---3----7-----------(5)------3--------------|
E|---5---------------3--1--------5-----------------3--1-----1----------|

1st solo & when Anthony comes in:

G|-------------------------5-----------------------------------|
D|----------5------------7----7-0-3-3--5-7--7-7-7-/14----------|
A|--------7----5--5-5-5----------------------------------------|
E|--5-5-5------------------------------------------------------|

G|-------------------------5-----5------------------------------|
D|----------5-----------7----0-3---7-7-7-7-----5-7p5------------|
A|--------7---5--5-5-5-5-------------------5-7-------7-5--------|
E|--5-5-5------------------------------------------------7------|


G|-------------------------5-----------------------------------|
D|----------5------------7----7-0-3-3--5-7--7-7-7-----5-7p5----|
A|--------7----5--5-5-5--------------------------5h7-------7---|
E|--5-5-5------------------------------------------------------|

G|-------------------------5-----5-----------------------------|
D|----------5-----------7----0-3---7-7-7-7-7-5---5-------------|
A|--------7---5--5-5-5-5-----------------------7---------------|
E|--5-5-5------------------------------------------------------|

G|-------------------------5-----------------------------------|
D|----------5------------7----7-0-3-3--5-7--7-7-7-----5-7p5----|
A|--------7----5--5-5-5--------------------------5h7-------7---|
E|--5-5-5------------------------------------------------------|

G|-------------------------5-----5-----------------------------|
D|----------5-----------7----0-3---7-7-7-7-7-7-7-7-------------|
A|--------7---5--5-5-5-5---------------------------------------|
E|--5-5-5------------------------------------------------------|


3rd Chorus into Outro/2nd solo: (Repeat The Chorus and with some variations):
(5x)

G|-----9----------------------------------------------------------|
D|-------10---10--------5--------3--------------------------------|
A|----------10--------5--------3----------------------------------|
E|---8--------------3-----3--1-----1------------------------------|

G|-----9-----------------------------------------------------------|
D|-------10---10-------5-------3-----------------------------------|
A|----------10-------5-------3---3---------------------------------|
E|---8-------------3-----3-1------1--------------------------------|

G|-------------4------------------------4-5-4--------------------------|
D|--------5------5----------3-----------------5----------3-------------|
A|-----7-----------5------3---3----7-----------(5)------3--------------|
E|---5---------------3--1--------5-----------------3--1-----1----------|

End on: (Let The note Fade until the end)
G|---------------------------------------------------------------|
D|---------------------------------------------------------------|
A|-----3---------------------------------------------------------|
E|---------------------------------------------------------------|

It Sounds Perfect!
            
Tabs too difficult? Try these video lessons and learn fast.


comments powered by Disqus
↑ Back to top | Tablatures and chords are parodies/interpretations of the original songs. You may use it for private study, scholarship, research or language learning purposes only