» » »

Red Hot Chili Peppers, Easily Bass tabs (ver.4)

Artists:  A B C D E F G H I J K L M N O P Q R S T U V W X Y Z # 

Easily Bass tabs (ver.4)

Red Hot Chili Peppers Tabs
 Rating:
4/5 (4 votes)
Easily lessons Tabs too difficult? Try these video lessons and learn fast
                -------------------------------------------------------------------------------
			           Easily - Red Hot Chili Peppers
-------------------------------------------------------------------------------

Album : Californication

Tuning: Standard

Intro:

G|---------------5-----------------------------------------------------------|
D|-------5-----7---0-3---5-7-7-7-7-----5-7p5---------------------------------|
A|-----7---5-----------------------5h7-------7-------------------------------|
E|-5-------------------------------------------------------------------------|

Verse 1:

G|-----------------------5---------------------------------------------------|
D|---------5-----------7---0-3--3-333-5-7-7-7-7-----5-7-5--------------------|
A|-------7---5-5-5-555--------------------------5h7--------------------------|
E|-5-5-5---------------------------------------------------------------------|

G|-----------------------5------------5--------------------------------------|
D|---------5-----------7---0-3--3-333---7--7-7-7-7-5---5---------------------|
A|-------7---5-5-5-555-------------------------------7-----------------------|
E|-5-5-5---------------------------------------------------------------------|

G|-----------------------5---------------------------------------------------|
D|---------5-----------7---0-3--3-333-5-7-7-7-7-----5-7p5--------------------|
A|-------7---5-5-5-555--------------------------5h7-------7------------------|
E|-5-5-5---------------------------------------------------------------------|

G|-----------------------5-----------5---------------------------------------|
D|---------5-----------7---0-3--3--3---7-7-7-777-7-7-7-----------------------|
A|-------7---5-5-5-555-------------------------------------------------------|
E|-5-5-5---------------------------------------------------------------------|

Chorus:
(x2)
G|----9----------------------------------------------------------------------|
D|-------------10-------5---------3------------------------------------------|
A|--------10--------------5-----3--------------------------------------------|
E|-8----8----8----8---3-----3-1-----1----------------------------------------|

(x2)
G|-------------4-------------------------------------------------------------|
D|-----------7---5---------3-------------------------------------------------|
A|-----7-7---------5-----3---------------------------------------------------|
E|-5-----------------3-1-----1-----------------------------------------------|

Verse 2:

G|-----------------------5---------------------------------------------------|
D|---------5-----------7---0-3---3-333-5-7-7-7-7------5-7p5------------------|
A|-------7---5-5-5-555---------------------------5h7--------7----------------|
E|-5-5-5---------------------------------------------------------------------|

G|-----------------------5---------------------------------------------------|
D|---------5-----------7---0-3---3-333-5-7-7-----5-7-7-5---------------------|
A|-------7---5-5-5-555-----------------------5h7---------7-------------------|
E|-5-5-5---------------------------------------------------------------------|

G|-----------------------5---------------------------------------------------|
D|---------5-----------7---0-3---3-333-5-7-7-7-7-----5-7---------------------|
A|-------7---5-5-5-555---------------------------5h7-------------------------|
E|-5-5-5---------------------------------------------------------------------|

G|-----------------------5-----------5---------------------------------------|
D|---------5-----------7---0-3--3--3---7-7-7-777-7-7-7-----------------------|
A|-------7---5-5-5-555-------------------------------------------------------|
E|-5-5-5---------------------------------------------------------------------|

Chorus(x2)

Solo 1:

G|-----------------------5-----------------------------12--------------------|
D|---------5-----------7---0-3---3-333-5-7-7-7-7-12/14-----------------------|
A|-------7---5-5-5-555-------------------------------------------------------|
E|-5-5-5---------------------------------------------------------------------|

G|-----------------------5---------------------------------------------------|
D|---------5-----------7---0-3---3-333-5-7-7-----5---5-----------------------|
A|-------7---5-5-5-555-----------------------5h7---7---7---------------------|
E|-5-5-5---------------------------------------------------------------------|

Singing comes in (Verse):

G|-----------------------5---------------------------------------------------|
D|---------5-----------7---0-3---3-333-5-7-7-7-7-----5-75--------------------|
A|-------7---5-5-5-555---------------------------5h7-------7-----------------|
E|-5-5-5---------------------------------------------------------------------|

G|-----------------------5-----------5---------------------------------------|
D|---------5-----------7---0-3--3--3---7-7-7-777-7-7-7-----------------------|
A|-------7---5-5-5-555-------------------------------------------------------|
E|-5-5-5---------------------------------------------------------------------|

Chorus(x1)
then
Chorus with variations:

G|----9----------------------------------------------------------------------|
D|-------------10-------5---------3------------------------------------------|
A|--------10--------------5-----3--------------------------------------------|
E|-8----8----8----8---3-----3-1-----1----------------------------------------|

G|----9-10-9-----------------------------------------------------------------|
D|-----------10----10----5---------3-----------------------------------------|
A|--------------10---------5-----3-------------------------------------------|
E|-8-------------------3-----3-1-----1---------------------------------------|

G|-------------4-------------------------------------------------------------|
D|-----------7---5---------3-------------------------------------------------|
A|-----7-7---------5-----3---------------------------------------------------|
E|-5-----------------3-1-----1-----------------------------------------------|

G|-----------4-5-4-----------------------------------------------------------|
D|-----------------5---------3-----------------------------------------------|
A|-----7-7-----------5-----3-------------------------------------------------|
E|-5-------------------3-1-----1---------------------------------------------|

Solo 2:

G|---------------------------------------------------------------------------|
D|--------------------5---------3--------------------------------------------|
A|----------------------5-----3----------------------------------------------|
E|-8-8-8-8-8-8-8-8--3-----3-1-----1------------------------------------------|

G|----9----------------------------------------------------------------------|
D|-------------10-------5---------3------------------------------------------|
A|--------10--------------5-----3--------------------------------------------|
E|-8----8----8----8---3-----3-1-----1----------------------------------------|

(x2)
G|-------------4-------------------------------------------------------------|
D|-----------7---5---------3-------------------------------------------------|
A|-----7-7---------5-----3---------------------------------------------------|
E|-5-----------------3-1-----1-----------------------------------------------|

G|----9----------------------------------------------------------------------|
D|-------------10-------5---------3------------------------------------------|
A|--------10--------------5-----3--------------------------------------------|
E|-8----8----8----8---3-----3-1-----1----------------------------------------|

G|----9-10-9-----------------------------------------------------------------|
D|-----------10----10----5---------3-----------------------------------------|
A|--------------10---------5-----3-------------------------------------------|
E|-8-------------------3-----3-1-----1---------------------------------------|

(x2)
G|-------------4-------------------------------------------------------------|
D|-----------7---5---------3-------------------------------------------------|
A|-----7-7---------5-----3---------------------------------------------------|
E|-5-----------------3-1-----1-----------------------------------------------|

(x2)
G|----9----------------------------------------------------------------------|
D|-------------10-------5---------3------------------------------------------|
A|--------10--------------5-----3--------------------------------------------|
E|-8----8----8----8---3-----3-1-----1----------------------------------------|


G|-------------4-------------------------------------------------------------|
D|-----------7---5---------3-------------------------------------------------|
A|-----7-7---------5-----3---------------------------------------------------|
E|-5-----------------3-1-----1-----------------------------------------------|

G|-------------4-------------------------------------------------------------|
D|-----------7---5-----------3-----------------------------------------------|
A|-----7-7---------5------3------3/15----------------------------------------|
E|-5-----------------3-1-----------------------------------------------------|
            
Submit corrections

comments powered by Disqus
↑ Back to top | Red Hot Chili Peppers Bass for Easily. Lyrics for acoustic guitar and electric guitar. Tablatures and chords are parodies/interpretations of the original songs. You may use it for private study, scholarship, research or language learning purposes only