» » »

Red Hot Chili Peppers, Dosed Tabs (ver.11)

Artists:  A B C D E F G H I J K L M N O P Q R S T U V W X Y Z # 

Dosed Tabs (ver.11)

Red Hot Chili Peppers Tabs
 Rating:
4/5 (4 votes)
Dosed lessons Tabs too difficult? Try these video lessons and learn fast
1
                Gtr I
|-12-------12-------12-------12-------|-10-------10------7------7-------|
|-------12-------12-------12-------10-|-------10------8-------8------12-|
|----12-------12-------12-------11----|----11-------9-------9-----12----|
|-------------------------------------|---------------------------------|
|-------------------------------------|---------------------------------|

|-----------------|-10-------|-19-17-15-14---15------15-14-12----12-|
|-----------------|-----7-8--|--------------------------------15----|
|-----------------|----------|--------------------------------------|
|-9-9-12-9---9----|----------|--------------------------------------|
|-----------------|----------|--------------------------------------|
|-----------------|----------|--------------------------------------|
Chorus
|-----------------------------------------------------------------------------------|
|12------12-12------12-12-12-0---7------7-7-------7-7-7-0---8------8-8------8-8-8-0-|
|12------12-12------12-12-12-0---7------7-7-------7-7-7-0---9------9-9------9-9-9-0-|
|12------12-12------12-12-12-0---7------7-7-------7-7-7-0---9------9-9------9-9-9-0-|
|10------10-10------10-10-10-0---5------5-5-------5-5-5-0---7------7-7------7-7-7-0-|
|-----------------------------------------------------------------------------------|

|------------------------|
|5------5-5-------5-5-5-0|
|5------5-5-------5-5-5-0|
|5------5-5-------5-5-5-0|
|3------3-3-------3-3-3-0|
|------------------------|

|---------------------------------------------------10-----10-10----10-10-10--10|
|-8------8-8-------8-8-8---8------8-8-------8-8-8---8------8--8------8--8--8---8|
|-9------9-9-------9-9-9---9------9-9-------9-9-9---x------x--x------x--x--x---x|
|-9------9-9-------9-9-9---9------9-9-------9-9-9---9------9--9------9--9--9---9|
|-7------7-7-------7-7-7---7------7-7-------7-7-7---7------7--7------7--7--7---7|
|-------------------------------------------------------------------------------|

|---10-10----10-10-10-|
|----8-8-------8--8�8-|
|----x-x-------x--x�x-|
|----9-9-------9--9�9-|
|----7-7-------7--7�7-|
|---------------------|
Solo :
|12-10-12-10-12-10-12-10-12-10-----------------------12-10-12-10-12-10-12-10-12-10--|
|---------------------------------12-12---12-12-12----------------------------------|
|-----------------------------------------------------------------------------------|
|-----------------------------------------------------------------------------------|
|-----------------------------------------------------------------------------------|
|-----------------------------------------------------------------------------------|

|------------------|
|-12-12---12-12-12-|
|------------------|
|------------------|
|------------------|
|------------------|

|----------------------------------------------------------------------------------|
|-13-13-13---13---12------------------------------15-17-15-17-15-17-15---12-12-12--|
|-------------------------12-12-12-11-12-12-------16-17-16-17-16-17-16---12-12-12--|
|----------------------------------------------------------------------------------|
|----------------------------------------------------------------------------------|
|----------------------------------------------------------------------------------|

|12-10-12-10-12-10-12-10-12-10-----------------------12-10-12-10-12-10-12-10-12-10--|
|---------------------------------12-12---12-12-12----------------------------------|
|-----------------------------------------------------------------------------------|
|-----------------------------------------------------------------------------------|
|-----------------------------------------------------------------------------------|
|-----------------------------------------------------------------------------------|

|----------------------------------------------------------------------|
|15---15-15---15-15-15---12^---^-^---^-^12---12---12---------12^12---15|
|----------------------------------------------------------------------|
|----------------------------------------------------------------------|
|----------------------------------------------------------------------|
|----------------------------------------------------------------------|
            
Submit corrections

comments powered by Disqus
↑ Back to top | Red Hot Chili Peppers Tabs for Dosed. Lyrics for acoustic guitar and electric guitar. 1 Tablatures and chords are parodies/interpretations of the original songs. You may use it for private study, scholarship, research or language learning purposes only