» » »

Red Hot Chili Peppers, Did I Let You Know Tabs (ver.5)

Artists:  A B C D E F G H I J K L M N O P Q R S T U V W X Y Z # 

Did I Let You Know Tabs (ver.5)

Red Hot Chili Peppers Tabs
Rating:
0/5 (0 votes)
Did I Let You Know lessons Tabs too difficult? Try these video lessons and learn fast
                This is my first time making a tab, hopefully it's good enough! If there are any 
mistakes with the tab, let me know. Enjoy.


************************************

| /   slide up
| \   slide down
| h   hammer-on
| p   pull-off
| ~   vibrato
| +   harmonic
| x   Mute note
| b   Bend
| pb  Pre-bend
| br  Bend release
| pbr Pre-bend release
| brb Bend release bend

************************************

e|---------------------------------------------------------------------------|
B|--------------------------------------------------------------------13b--11|
G|--8brb---6h8-----------------------------------------------12b--10---------|
D|-------------8brb------8---------------------8------10brb------------------|
A|------------------8/10----8brb------------------10-------------------------|
E|-------------------------------8b---6--8/10--------------------------------|

e|-------13--x--15brb--15------15---13-15---15-13-15-------------------------|
B|---------------------------------------------------------------------------|
G|-12b-----------------------------------------------------------------------|
D|----------------------------------------------------------------13brb-13---|
A|--------------------------------------------------------------13-----------|
E|-----------------------------------------------------9---11/13-------------|

e|--------------------------------------------------15brb--------------------|
B|---------------------------------------------------------------------------|
G|--------------------------------17------17brb---------------12-------------|
D|-11----------------15brb---------------------------------------------------|
A|----13----11-13------------------------------------------------------------|
E|---------------------------------------------------------------------------|
            
Submit corrections

comments powered by Disqus
↑ Back to top | Red Hot Chili Peppers Tabs for Did I Let You Know. Lyrics for acoustic guitar and electric guitar. Tablatures and chords are parodies/interpretations of the original songs. You may use it for private study, scholarship, research or language learning purposes only