» » »

Dani California Bass tabs (ver.1)

Artists:  A B C D E F G H I J K L M N O P Q R S T U V W X Y Z # 

Dani California Bass tabs (ver.1)

Red Hot Chili Peppers
Rating:
0/5 (0 votes)

Tabs too difficult? Try these video lessons and learn fast.
                -----------------------------------------------------------------
 Dani California - Red Hot Chili Peppers - Stadium Arcadium - UPDATED!
-----------------------------------------------------------------

Tuning: Standard

Bass by Micheal Balzary (Flea)

Here is the bass part for RHCP’s first single of Stadium Arcadium, Dani California.

Update: This is now pretty much perfect. Everything is tabbed out, chorus and bridge
fixed, all the solo fills done. Enjoy.

Verse:

G|--------------------7-------------------|
D|-----7------5-3-------5h7p5-------------|
A|----------------5-5---------7-5---------|
E|-5-5----3-3-----------------------------|

G|--------------------7------------|
D|-----7------5-3-------7----------|
A|----------------5-5------3-5-5---|
E|-5-5----3-3------------5---------|

G|--------------------7-------------------|
D|-----7------5-3-------5h7p5-------------|
A|----------------5-5---------7-5---------|
E|-5-5----3-3-----------------------------|

G|--------------------7----------------|
D|-----7------5-3--------------5-------|
A|----------------5-5----5h7p5---7-----|
E|-5-5----3-3----------------------5---|

G|--------------------7-----5----------|
D|-----7------5-3-------5h7---5---5----|
A|----------------5-5-----------7------|
E|-5-5----3-3--------------------------|

G|--------------------7-------------------|
D|-----7------5-3-------5h7p5-------------|
A|----------------5-5---------7-5---------|
E|-5-5----3-3-----------------------------|

G|--------------------7-------------------|
D|-----7------5-3-------5h7p5-------------|
A|----------------5-5---------7-5---------|
E|-5-5----3-3-----------------------------|

G|--------------------7-------------------|
D|-----7------5-3-------5h7p5--5---5------|
A|----------------5-5------------7---7----|
E|-5-5----3-3-----------------------------|

G|--------------------7-------------------|
D|-----7------5-3-------5h7p5-------------|
A|----------------5-5---------7-5---------|
E|-5-5----3-3-----------------------------|

G|-----------------------------------------------|
D|-----7------5-3--------------------------------|
A|----------------5-5--5-55-5---5-55-5---5-55-5--|
E|-5-5----3-3------------------------------------|

Chorus:

G|--------------------------------------|
D|--------------------------------------| x3
A|-------3-3-(3)3h5-55-5----------------|
E|-1-1-1-----------------3-3------------|

G|------------------------------------------------|
D|--------------------------------------------5---| 
A|-------3-3-(3)3h5-5-5--5-55--5-55--5-55---7---7-|
E|-1-1-1------------------------------------------|


Post chorus wierd guitar thingy:

G|--------------------7-------------------|
D|-----7------5-3-------5h7p5-------------|
A|----------------5-5---------7-5---------|
E|-5-5----3-3-----------------------------|

G|--------------------7-----------------|
D|-----7------5-3-----------------5-----|
A|----------------5-5---5h7---3-7---7---|
E|-5-5----3-3---------------5-----------|

Verse 2:

G|--------------------7-------------------|
D|-----7------5-3-------5h7p5-------------|
A|----------------5-5---------7-5---------|
E|-5-5----3-3-----------------------------|

G|--------------------7-----------------|
D|-----7------5-3------------5-7-5------|
A|----------------5-5----5h7------7-5---|
E|-5-5----3-3---------------------------|

G|--------------------7-------------------|
D|-----7------5-3-------5h7p5-------------|
A|----------------5-5---------7-5---------|
E|-5-5----3-3-----------------------------|

G|-----------------------------------------------|
D|-----7------5-3--------------------------------|
A|----------------5-5--5-55-5---5-55-5---5-55-5--|
E|-5-5----3-3------------------------------------|

Chorus

Bridge:

G|----------------------------------------------|
D|-----9-------9---9----9---7------9---7--------| x3
A|-------9-7-----9--------9--------------9-7-5--|
E|-7-7-------------------------7-7--------------|

G|--------------------------------------------|
D|-----9-------9---9----9---7-----------4-----| 
A|-------9-7-----9--------9---------5-7-------|
E|-7-7-------------------------7-7--------7---|

Verse 3:

G|--------------------7-------------------|
D|-----7------5-3-------5h7p5-------------|
A|----------------5-5---------7-5---------|
E|-5-5----3-3-----------------------------|

G|--------------------7-------7---------|
D|-----7------5-3-----------9---9-7-----|
A|----------------5-5---5h7---------9-7-|
E|-5-5----3-3----------------------------|

G|--------------------7-------------------|
D|-----7------5-3-------5h7p5-------------|
A|----------------5-5---------5h7p5-------|
E|-5-5----3-3-----------------------------|

G|-----------------------------------------------|
D|-----7------5-3--------------------------------|
A|----------------5-5--5-55-5---5-55-5---5-55-5--|
E|-5-5----3-3------------------------------------|

G|---9-9-99-9-99-9-9------------------|
D|------------------------------------|
A|------------------------------------|
E|------------------0-0-00-0-0-00-0-0-|

Chorus x2

Solo

G|--------------------------------------|
D|--------------------------------------| 
A|-------3-3-(3)3h5-55-5----------------|
E|-1-1-1-----------------3-3------------|

G|------------------------------------|
D|--------------------3---------------| 
A|-------3-3-(3)3h5-5---5-3--3--------|
E|-1-1-1--------------------5--3------|

G|--------------------------------------|
D|--------------------------------------| 
A|-------3-3-(3)3h5-55-5----------------|
E|-1-1-1-----------------3-3-3----------|

G|---------------------------------------5---7-5---7-5----|
D|-----------------------------------5-7---------7-----7--| 
A|-------3-3-(3)3h5-5-5--5-55--5-55-----------------------|
E|-1-1-1--------------------------------------------------|

G|--------------------------------------|
D|--------------------------------------| 
A|-------3-3-(3)3h5-55-5-55-------------|
E|-1-1-1--------------------3-3-3-------|

G|--------------------------------------|
D|--------------------------------------| 
A|-------3-3-(3)3h5-55-5----------------|
E|-1-1-1-----------------3-3-3----------|

G|---------------------7---------------|
D|-----------------------5h7p5---------| 
A|-------3-3-(3)3h5-55---------7-5-----|
E|-1-1-1-------------------------------|

G|--------------------------------------------------------------|
D|-----------------------------------------2-3-5-7-8-9-10-10----| 
A|--------------------------------0-2--3-3-------------------5*-|
E|-1-11-1---1-11-1---1-11-1---1-1-------------------------------|
            
Tabs too difficult? Try these video lessons and learn fast.


comments powered by Disqus
↑ Back to top | Tablatures and chords are parodies/interpretations of the original songs. You may use it for private study, scholarship, research or language learning purposes only