>
 >
Dani California 2

Dani California 2 Bass Tabs

Red Hot Chili Peppers - Dani California 2 chords, tabs, tablatures, lyrics

Guitar lessons | Add/correct | Request | Top 50 tabs Artists:  A B C D E F G H I J K L M N O P Q R S T U V W X Y Z 0-9

Dani California 2 Bass Tabs – Red Hot Chili Peppers

CD, Sheet music, Poster

Do you like Dani California 2? Share with your friends now
Bass TabsBass Tabs v2Bass Tabs v3ChordsChords v2Drum TabsTabsTabs v2Tabs v3Tabs v4Tabs v5Tabs v6Tabs v7Tabs v8Ukulele
-------------------------------------------------------------------------------
         SONG NAME Dani California - Band Name - Red hot chili peppers
-------------------------------------------------------------------------------


This is my first tab and it sounds right to me so enjoy it. While enjoying this fine 
i have bestowed upon you, please take a moment to think of my momentus rock band (steal 
who will soon be churning out blockbuster hits like the Chili Peppers themselves in no time!
Thanks Adam,Tim B, kay and my dearest Henry (love wizen himself)!

Tuning: E A D G

Verse 1
G|--------------------7---------------------------------------------------------------|
D|-----7-----5-3----------7-5---------------------------------------------------------|
A|---------------3/5-5--5-----7-5-----------------------------------------------------|
E|-5-5---3-3--------------------------------------------------------------------------|

G|---------------------7----------------------------------------------------------------|
D|-----7-----5-3------------------------------------------------------------------------|
A|---------------3/5-5---5-3-4-5-6------------------------------------------------------|
E|-5-5---3-3----------------------------------------------------------------------------|

G|---------------------7--------------------------------------------------------------|
D|-----7-----5-3------------7-5-7-----------------------------------------------------|
A|---------------3/5-5----5-------75--------------------------------------------------|
E|-5-5---3-3--------------------------------------------------------------------------|

G|---------------------7----------------------------------------------------------------|
D|-----7-----5-3-------------5----------------------------------------------------------|
A|---------------3/5-5---5-7---7-5-3----------------------------------------------------|
E|-5-5---3-3----------------------------------------------------------------------------|

G|---------------------7-----5-------------------------------------------------------|
D|-----7-----5-3---------5-7-------5-------------------------------------------------|
A|---------------3/5-5---------5-7---------------------------------------------------|
E|-5-5---3-3-------------------------------------------------------------------------|

G|--------------------7----------------------------------------------------------------|
D|-----7-----5-3--------5-5/7-5--------------------------------------------------------|
A|--------------3/5-5-----------7-5----------------------------------------------------|
E|-5-5---3-3---------------------------------------------------------------------------|

G|--------------------7--------------------------------------------------------------|
D|-----7-----5-3--------7-5----------------------------------------------------------|
A|--------------3/5-5-------7-5------------------------------------------------------|
E|-5-5---3-3-------------------------------------------------------------------------|

G|--------------------7----------------------------------------------------------------|
D|-----7-----5-3--------7/87-----5-----------------------------------------------------|
A|--------------3/5-5---------5-7---7--------------------------------------------------|
E|-5-5---3-3---------------------------------------------------------------------------|

G|--------------------7---------------------------------------------------------------|
D|-----7-----5-3--------5/7-5---------------------------------------------------------|
A|--------------3/5-5---------7-5-----------------------------------------------------|
E|-5-5---3-3--------------------------------------------------------------------------|

G|-------------------------------------------------------------------------------------|
D|-----7-----5-3-----------------------------------------------------------------------|
A|--------------3/5-5-5-5-5-5----------------------------------------------------------|
E|-5-5---3-3---------------------------------------------------------------------------|

Chorus
G|----------------------------------------|
D|----------------------------------------|
A|-----------3-3-3-3/5-5-5-5-5-5-5--------|
E|-1-1-1-1-1-----------------------3-3-3--|

G|------------------------------------------------------------------------------------|
D|------------------------------------------------------------------------------------|
A|-----------3-3-3-3/5-5-5-5-5-5-5----------------------------------------------------|
E|-1-1-1-1-1-----------------------3-3-3----------------------------------------------|

G|----------------------------------------|
D|----------------------------------------|
A|-----------3-3-3-3/5-5-5-5-5-5-5--------|
E|-1-1-1-1-1-----------------------3-3-3--|

G|----------------------------------------------------|
D|----------------------------------------------------|
A|-----------3-3-3-3/5-5-5-5---5-5-5---5-5-5---5-5-5--|
E|-1-1-1-1-1------------------------------------------|

Verse 2
G|---------------------7-------------------------------------------------------------|
D|-----7-----5-3---------7-5---------------------------------------------------------|
A|---------------3/5-5-------7-5-----------------------------------------------------|
E|-5-5---3-3-------------------------------------------------------------------------|

G|---------------------7-----------------------------------------------------------------|
D|-----7-----5-3-------------------------------------------------------------------------|
A|---------------3/5-5---3-4-5/75-3------------------------------------------------------|
E|-5-5---3-3-----------------------------------------------------------------------------|

G|---------------------7--------------------------------------------------------------|
D|-----7-----5-3---------5/75---------------------------------------------------------|
A|---------------3/5-5---------7-5----------------------------------------------------|
E|-5-5---3-3--------------------------------------------------------------------------|

G|---------------------7---------------|
D|-----7-----5-3-------------3---------|
A|---------------3/5-5---5h7---5-3/53--|
E|-5-5---3-3---------------------------|

G|---------------------7-------------------------------------------------------------|
D|-----7-----5-3---------5-7-5-------------------------------------------------------|
A|---------------3/5-5---------7-5---------------------------------------------------|
E|-5-5---3-3-------------------------------------------------------------------------|

G|------------------------------------------------|
D|-----7-----5-3----------------------------------|
A|---------------3/5-5-5-5-5-5-5-5-5-5-5-5-5-5-5--|
E|-5-5---3-3--------------------------------------|

Chorus
G|----------------------------------------|
D|----------------------------------------|
A|-----------3-3-3-3/5-5-5-5-5-5-5--------|
E|-1-1-1-1-1-----------------------3-3-3--|

G|----------------------------------------|
D|----------------------------------------|
A|-----------3-3-3-3/5-5-5-5-5-5-5--------|
E|-1-1-1-1-1-----------------------3-3-3--|

G|----------------------------------------|
D|----------------------------------------|
A|-----------3-3-3-3/5-5-5-5-5-5-5--------|
E|-1-1-1-1-1-----------------------3-3-3--|

G|----------------------------------------------------|
D|----------------------------------------------------|
A|-----------3-3-3-3/5-5-5-5---5-5-5---5-5-5---5-5-5--|
E|-1-1-1-1-1------------------------------------------|

Bridge
G|---------------------------------------------------------------------------------------|
D|-----9-7-9-9-7-9-9---------------------------------------------------------------------|
A|-------------------10-10-10-9-9--------------------------------------------------------|
E|-7-7----------------------------10-10--------------------------------------------------|

G|---------------------------------------------------------------------------------------|
D|-----9-7-9-9-7-9-9---------------------------------------------------------------------|
A|-------------------10-10-10-9-9--------------------------------------------------------|
E|-7-7----------------------------10-10--------------------------------------------------|

G|---------------------------------------------------------------------------------------|
D|-----9-7-9-9-7-9-9---------------------------------------------------------------------|
A|-------------------10-10-10-9-9--------------------------------------------------------|
E|-7-7----------------------------10-10--------------------------------------------------|

G|-------------------------------------|
D|-----9-7-9-9-7-9-9-------------------|
A|-------------------10-10-10---5-7-0--|
E|-7-7------------------------7--------|

Verse 3
G|---------------------7-------------------------------------------------------------|
D|-----7-----5-3---------7-5---------------------------------------------------------|
A|---------------3/5-5-------7-5-----------------------------------------------------|
E|-5-5---3-3-------------------------------------------------------------------------|

G|---------------------7-----5-7/87-5-------------------------------------------------|
D|-----7-----5-3---------5-7-----------7----------------------------------------------|
A|---------------3/5-5----------------------------------------------------------------|
E|-5-5---3-3--------------------------------------------------------------------------|

G|---------------------7--------------------------------------------------------------|
D|-----7-----5-3---------5-7-5--------------------------------------------------------|
A|---------------3/5-5---------5-7-5--------------------------------------------------|
E|-5-5---3-3--------------------------------------------------------------------------|

G|--------------------------------------------------------------------------------|
D|-----7-----5-3------------------------------------------------------------------|
A|---------------3/5-5-5-5-5-5-5-5-5-5-5-5-5-5-5-7-7-7-7-7-7-7-7------------------|
E|-5-5---3-3-----------------------------------------------------0-0-0-0-0-0-0-0--|

Chorus
G|----------------------------------------|
D|----------------------------------------|
A|-----------3-3-3-3/5-5-5-5-5-5-5--------|
E|-1-1-1-1-1-----------------------3-3-3--|

G|----------------------------------------|
D|----------------------------------------|
A|-----------3-3-3-3/5-5-5-5-5-5-5--------|
E|-1-1-1-1-1-----------------------3-3-3--|

G|----------------------------------------|
D|----------------------------------------|
A|-----------3-3-3-3/5-5-5-5-5-5-5--------|
E|-1-1-1-1-1-----------------------3-3-3--|

G|----------------------------------------------------|
D|----------------------------------------------------|
A|-----------3-3-3-3/5-5-5-5---5-5-5---5-5-5---5-5-5--|
E|-1-1-1-1-1------------------------------------------|

G|----------------------------------------|
D|----------------------------------------|
A|-----------3-3-3-3/5-5-5-5-5-5-5--------|
E|-1-1-1-1-1-----------------------3-3-3--|

G|----------------------------------------|
D|----------------------------------------|
A|-----------3-3-3-3/5-5-5-5-5-5-5--------|
E|-1-1-1-1-1-----------------------3-3-3--|

G|----------------------------------------|
D|----------------------------------------|
A|-----------3-3-3-3/5-5-5-5-5-5-5--------|
E|-1-1-1-1-1-----------------------3-3-3--|

G|----------------------------------------------------|
D|----------------------------------------------------|
A|-----------3-3-3-3/5-5-5-5---5-5-5---5-5-5---5-5-5--|
E|-1-1-1-1-1------------------------------------------|

Solo/Outro
G|----------------------------------------|
D|----------------------------------------|
A|-----------3-3-3-3/5-5-5-5-5-5-5--------|
E|-1-1-1-1-1-----------------------3-3-3--|

G|----------------------------------------|
D|----------------------------------------|
A|-----------3-3-3-3/5-5-5-5-5-5-5--------|
E|-1-1-1-1-1-----------------------3-3-3--|

G|----------------------------------------|
D|----------------------------------------|
A|-----------3-3-3-3/5-5-5-5-5-5-5--------|
E|-1-1-1-1-1-----------------------3-3-3--|

G|--------------------------------------------------------7-5---7-5---7-5--|
D|-----------------------------------------------------------7-----7-------|
A|-----------3-3-3-3/5-5-5-5-5-5-5--5-5-5-5--5-5-5-5--5-5------------------|
E|-1-1-1-1-1---------------------------------------------------------------|

G|----------------------------------------|
D|----------------------------------------|
A|-----------3-3-3-3/5-5-5-5-5-5-5--------|
E|-1-1-1-1-1-----------------------3-3-3--|

G|----------------------------------------|
D|----------------------------------------|
A|-----------3-3-3-3/5-5-5-5-5-5-5--------|
E|-1-1-1-1-1-----------------------3-3-3--|

G|----------------------------------------|
D|----------------------------------------|
A|-----------3-3-3-3/5-5-5-5-5-5-5--------|
E|-1-1-1-1-1-----------------------3-3-3--|

G|----------------------------------------------------------------|
D|---------------------------------------------7-8-9-10-10-10-12--|
A|------------------------------------7-8-9-10--------------------|
E|1-1-1-1-1-1-1-1-1-1-1-1-1-1-5-6-7--8-8-8-8--8-8-8-8--8--8-------|

| /  slide up
|   slide down
| h  hammer-on
| p  pull-off
| ~  vibrato
| +  harmonic
| x  Mute note


===============================================================================





Comments


Popular Red Hot Chili Peppers tabs & chords
Off The Map - Pea 1 Bass Tabs
Around The World 2 Tabs
Cant Stop 6 Tabs
Coffee Shop Tabs
F.U. Tabs
Good Time Boys Tabs
I Like Dirt 1 Tabs
Pea Tabs
Throw Away Your Television 2 Tabs
Transcending 1 Tabs


Song lyrics



↑ Back to top | Tablatures and chords are parodies/interpretations of the original songs. You may use it for private study, scholarship, research or language learning purposes only
© 2014 AZChords.com Contact us | Privacy policy | DMCA | Add/correct tabs | Request tabs | Top 50 tabs