>
 >
Dani Caifornia

Dani Caifornia Bass Tabs

Red Hot Chili Peppers - Dani Caifornia chords, tabs, tablatures, lyrics

Guitar lessons | Add/correct | Request | Top 50 tabs Artists:  A B C D E F G H I J K L M N O P Q R S T U V W X Y Z 0-9

Dani Caifornia Bass Tabs – Red Hot Chili Peppers

CD, Sheet music, Poster

Do you like Dani Caifornia? Share with your friends now
Bass TabsDrum Tabs
Dani California - Red Hot Chili Peppers

Bass-line
Standard Tuning


Verse:
|---------------------7------------------|
|-----7-------5-3-------0-5h7p5----------|
|-----------------5-5-----------7-5------|
|-5-5---0-3-3----------------------------|

|---------------------7------------------|
|-----7-------5-3---------7--------------|
|-----------------5-5---------5-7-7------|
|-5-5---0-3-3-----------5---8------------|

|---------------------7------------------|
|-----7-------5-3-------0-5h7p5----------|
|-----------------5-5-----------7-5------|
|-5-5---0-3-3----------------------------|

|---------------------7------------------|
|-----7-------5-3-------------5----------|
|-----------------5-5---X-5h7---7p5------|
|-5-5---0-3-3-----------------------8----|

|---------------------7-------7----------|
|-----7-------5-3-------X-5h7---5h7p5----|
|-----------------5-5--------------------|
|-5-5---0-3-3----------------------------|

|---------------------7------------------|
|-----7-------5-3-------0-5h7p5----------|
|-----------------5-5-----------7-5------|
|-5-5---0-3-3----------------------------|

|---------------------7------------------|
|-----7-------5-3-------0-5h7p5----------|
|-----------------5-5-----------7-5------|
|-5-5---0-3-3----------------------------|

|---------------------7------------------|
|-----7-------5-3-------0-5h7p5-----5----|
|-----------------5-5-----------5h7---7--|
|-5-5---0-3-3----------------------------|

|---------------------7------------------|
|-----7-------5-3-------0-5h7p5----------|
|-----------------5-5-----------7-5------|
|-5-5---0-3-3----------------------------|

Pre-Chorus:
|----------------------------------------|
|-----7-------5-3------------------------|
|-----------------5-5-55555-55555-5555---|
|-5-5---0-3-3-------------------------5\-|

Chorus:
|-------------------------------------|x3
|-------------------------------------|
|----------X3-3-303h5-555-------------|
|-1-1-1----------------------X3-3\----|

|---------------------------------------------------|
|----------------------------------------------5----| 
|----------X3-3--X3h5-555-5-55-X5-55-X5-55-5h7---7--|
|-1-1-1---------------------------------------------|

Post Chorus:
|---------------------7------------------|
|-----7-------5-3-------0-5h7p5----------|
|-----------------5-5-----------7-5------|
|-5-5---0-3-3----------------------------|

|----------------------7-----------------|
|-----7--------5-3---------7-------5-----|
|------------------5-5---------5h7---7---|
|-5-5---0-3-3------------5---8-----------|

Verse 2:
|---------------------7------------------|
|-----7-------5-3-------0-5h7p5----------|
|-----------------5-5-----------7-5------|
|-5-5---0-3-3----------------------------|

|---------------------7------------------|
|-----7-------5-3-------------5----------|
|-----------------5-5---0-5h7---7---5----|
|-5-5---0-3-3---------------------8---8\-|

|---------------------7------------------|
|-----7-------5-3-------0-5h7p5----------|
|-----------------5-5-----------7-5------|
|-5-5---0-3-3----------------------------|

Pre-Chorus:
|----------------------------------------|
|-----7-------5-3------------------------|
|-----------------5-5-55555-55555-5555---|
|-5-5---0-3-3-------------------------5\-|

Chorus:
|-------------------------------------|x3
|-------------------------------------|
|----------X3-3-303h5-555-------------|
|-1-1-1----------------------X3-3\----|

|---------------------------------------------------|
|---------------------------------------------------| 
|----------X3-3--X3h5-555-5-55-X5-55-X5-55----------|
|-1-1-1---------------------------------------------|

Bridge:
|-------------------------------------------|x3
|-----9-----9---9---------------------------|
|-------7h9---9----X9-10-10--10--X9-7-------|
|-7-7----------------------10---------109---|

|-------------------------------------------|
|-----9-----9---9---------------------------| 
|-------7h9---9-----------------5-7---------|
|-7-7---------------7-------0h7-----7\------|

Verse 3:
|---------------------7------------------|
|-----7-------5-3-------0-5h7p5----------|
|-----------------5-5-----------7-5------|
|-5-5---0-3-3----------------------------|

|---------------------7-----7-9-7--------|
|-----7-------5-3-------5h7-------9-7----|
|-----------------5-5-----------------9--|
|-5-5---0-3-3----------------------------|

|---------------------7------------------|
|-----7-------5-3-------0-5h7p5----------|
|-----------------5-5-----------5h7p5----|
|-5-5---0-3-3----------------------------|

Pre-Chorus:
|----------------------------------------|
|-----7-------5-3------------------------|
|-----------------5-5-55555-55555-55555/-|
|-5-5---0-3-3----------------------------|

|-9-9-99999\--------------------|
|-------------------------------|
|-------------------------------|
|-------------0-0-0-0-00000000--|

Chorus:
|-------------------------------------|x3
|-------------------------------------|
|----------X3-3-303h5-555-------------|
|-1-1-1----------------------X3-3\----|

|---------------------------------------------------|
|---------------------------------------------------| 
|----------X3-3--X3h5-555-5-55-X5-55-X5-55-5-3------|
|-1-1-1----------------------------------------5-3--|

|-------------------------------------|x3
|-------------------------------------|
|----------X3-3-303h5-555-55----------|
|-1-1-1X1--------------------X3-3\----|

|---------------------------------------------------|
|-------3-------------------------------3-5-3-------| 
|----------X3-3-303h5-555-5-55-X5-55-3h5-----53-----|
|-1-1-1----------------------------------------5\---|

Guitar Solo:
|-------------------------------------|
|-------------------------------------|
|----------X3-3-303h5-555-55----------|
|-1-1-1X1--------------------X3-33\---|

|-------------------------------------|
|-------------------------3-----------|
|----------X3-3-303h5-555--5----------|
|-1-1-1X1--------------------X3-3-53--|

|-------------------------------------|
|-------------------------------------|
|----------X3-3-303h5-555-55----------|
|-1-1-1X1--------------------X3-3-3\--|

|--------------------------------------575-575------|
|-------------------------------------7---5---7-----| 
|----------X3-3-303h5-555-5-55-X5-55-5--------------|
|-1-1-1X1---------------------------------------5\--|

|-------------------------------------|
|-------------------------------------|
|----------X3-3-303h5-555-55----------|
|-1-1-1X1--------------------X3-33-3--|

|-------------------------------------|
|-------------------------------------|
|----------X3-3-303h5-555-55----------|
|-1-1-1X1--------------------X3-3-53--|

|-------------------------------------|
|-------------------------3-5/7-5-3---|
|----------X3-3-303h5-555--5-------53-|
|-1-1-1X1----------------------------5|

Ending:
|-------------------------------------------------2--3--4--5-5-------|
|-------------------------------------2--3--4--5---------------------| 
|---------------------------0-2-2-3-3---3--3--3--3--3--3--3------5---|
|-1-1-1-11111-1-111-1-1-1111-----------------------------------------|


Tablature Legend:

h - Hammer On
p - Pull Off
X - Ghosted Note
/ - Slide Up
\ - Slide Down


I worked very hard on this tab and I believe that it is absolutely 100% perfect!
Please rate!
Thank you and Good Luck!

--blinkn31





Comments


Popular Red Hot Chili Peppers tabs & chords
Good Time Boys 5 Bass Tabs
Cant Stop Chords
Aeroplane 3 Tabs
Bob Tabs
Californication 2 Tabs
Cant Stop Intro Tabs
Death Of A Martian Intro Tabs
Hump De Bump Tabs
Organic Beat 1 Tabs
Tearjerker 2 Tabs


Song lyrics



↑ Back to top | Tablatures and chords are parodies/interpretations of the original songs. You may use it for private study, scholarship, research or language learning purposes only
© 2014 AZChords.com Contact us | Privacy policy | DMCA | Add/correct tabs | Request tabs | Top 50 tabs