» » »

Dance Dance Dance Bass tabs (ver.1)

Artists:  A B C D E F G H I J K L M N O P Q R S T U V W X Y Z # 

Dance Dance Dance Bass tabs (ver.1)

Red Hot Chili Peppers
Rating:
0/5 (0 votes)

Hard to play? Try these video lessons and learn fast.
                
Standard tuning: E-A-D-G

Intro/verse 

G |---------------------|------------------|
D |---------------------|------------------| 
A |---5-5---5-5-5-5-----|-7-7---7-7-7-7----|
E |-------7----------7--|-----7---------7--|

Chorus

G |----------------|---------------|----7---7---7---|----7---7---7---|
D |----7---7---7---|---5---5---5---|----------------|----------------|
A |----------------|---------------|--5---5---5-----|--5---5---5-----|
E |--5---5---5-----|--3---3---3----|----------------|----------------|

bridge

G |---------------------|---------------------|
D |---------------------|------------------5--|
A |-------5-5----5-7-5--|-------5-5----5-7----|
E |---7-7------7--------|---7-7------7--------|

Finish on 

G |------------------------|
D |------------------------|
A |---5~~~-----------------|
E |------------------------|

Order

intro/verse x16
chorus x2
intro/verse x16
chorus x4
bridge x4
intro/verse x14
            
Hard to play? Try these video lessons and learn fast. | Correct




comments powered by Disqus
↑ Back to top | Tablatures and chords are parodies/interpretations of the original songs. You may use it for private study, scholarship, research or language learning purposes only