» » »

Red Hot Chili Peppers, Can't Stop Tabs (ver.9)

Artists:  A B C D E F G H I J K L M N O P Q R S T U V W X Y Z # 

Can't Stop Tabs (ver.9)

Red Hot Chili Peppers Tabs
 Rating:
4/5 (4 votes)
Can't Stop lessons Tabs too difficult? Try these video lessons and learn fast
1
                (Live)
RHCP
Cant Stop (Live solo at bottom)

INTRO
---------------------|
---------------------|
---------------------|
---------------------|
-5-7-5-7-5-7-5-7-5-7-|
---------------------|

FILL 1
--------------------|
-9-7----------------|
-----9----9p8p7p5---|
--------------------|
--------------------|

FILL 2
-----------------------|
-----------------------|
--9b-9b--7h9----9b-9b--|
-----------------------|
-----------------------|
-----------------------|

FILL 3

---------9-------------|
----9b11----r9---------|
-----------------------|
-----------------------|
-----------------------|
-----------------------|
   Sustain bend

VERSE
  E                    D                      B                     C
---------------------------------------------------------------------------------|
---------------------------------------------------------------------------------|
---7-9-----7-9----------7-9-------7-9-----------7-9-----7-9---------7-9------7-9-|
---------------------0-------0-0-------0-0-0-------------------------------------|
-7-----7-7-----7-7-7-------------------------------------------------------------|
---------------------------------------------7-7-----7-7-----7-7-7-8------8-8----|

-------|
-------|
-------|
-------|
-------|
-8-8-8-|

PRECHORUS (in last measure of verse)
 Emin7
--7--
--8--
--9--
--9--
--7--
--7--

CHORUS
Emin7 D7  Bmin7 C7
--7-7-5-----2-2-3----|
--8-8-5-----2-2-4----|
--9-9-7-----4-4-5----|
--9-9-7-----4-4-5----|
--7-7-5-----2-2-3----|
---------------------|

BRIDGE
First two repetitions: chorus chords played with synchopated, staccato
rhythm
Second two repetitions: single notes of chorus chords with phasor/vibrato

LIVE SOLO
---------------------------------------------------------------------|
--15b17r15~~~~~--15b17r15~~~~~~--15b17r15~~~~~~--15-12---------------|
-------------------------------------------------------12------------|
---------------------------------------------------------------------|
---------------------------------------------------------------------|
---------------------------------------------------------------------|

                                                 |<--4x-->|
-------------------14---------------12-------------------------------|
--15b17~~~~--15b17----r15-----12-15----15-12------17p15p12-----------|
---------------------------------------------12----------------------|
---------------------------------------------------------------------|
---------------------------------------------------------------------|
---------------------------------------------------------------------|

-------------15-17-17b19r17~~---15-17-17b19r17~~----15\14/15--14b15--|
--17b19r17-----------------------------------------------------------|
---------------------------------------------------------------------|
---------------------------------------------------------------------|
---------------------------------------------------------------------|
---------------------------------------------------------------------|
            
Submit corrections

comments powered by Disqus
↑ Back to top | Red Hot Chili Peppers Tabs for Can't Stop. Lyrics for acoustic guitar and electric guitar. 1 Tablatures and chords are parodies/interpretations of the original songs. You may use it for private study, scholarship, research or language learning purposes only