» » »

Can't Stop Tabs (ver.6)

Artists:  A B C D E F G H I J K L M N O P Q R S T U V W X Y Z # 

Can't Stop Tabs (ver.6)

Red Hot Chili Peppers
Rating:
0/5 (0 votes)

Hard to play? Try these video lessons and learn fast.
                (Intro)
I just heard the guitar and thought it was really cool so I decided to tab it out.
If anyone can figure out the "Cabron" song on the same cd please e-mail it to me. 




a---57-57-57-57-57----57-57-57-57-57----57-57-57-57-57----57-57-57-57-57
a---57-57-57-57-57----57-57-57-57-57----57-57-57-57-57----57-57-57-57-57



e----------------------------------------------------------------------
b----35------35-------35-------35-------35------35------35------35-----
g---------------------------------------------------------------------- REPEAT
d--2----222------2220-----000------000---------------------------------
a-------------------------------------2-----222----2223------333----333
E----------------------------------------------------------------------
            
Hard to play? Try these video lessons and learn fast. | Correct




comments powered by Disqus
↑ Back to top | Tablatures and chords are parodies/interpretations of the original songs. You may use it for private study, scholarship, research or language learning purposes only