>
 >
Cant Stop Correct

Cant Stop Correct Guitar Tabs

Red Hot Chili Peppers - Cant Stop Correct chords, tabs, tablatures, lyrics

Guitar lessons | Add/correct | Request | Top 50 tabs Artists:  A B C D E F G H I J K L M N O P Q R S T U V W X Y Z 0-9

Cant Stop Correct Guitar Tabs – Red Hot Chili Peppers

CD, Sheet music, Poster

Do you like Cant Stop Correct? Share with your friends now
Tabs
Red hot chilli peppers
Cant stop


R=rest
B^ full= bend up full


Intro
--------------------------------------
-------------------------R------------
-------------------------R------------
-0-2-0-2-0-2-0-2-0-2-0-2-R------------
-------------------------R------------
-------------------------------------
^This is the intro play this about 8 times and get louder


Verse 1
--------0----------0------------0---------0-----------0----
------3----------3------------3---------3-----------3------
-----------------------------------------------------------
-2-2------2-2-2------2-2-2-0------0-0-0----0-0-0-----------
-------------------------------------------------2---------
-----------------------------------------------------------

----------0-----------0----------0----------------
--------3-----------3----------3------------------
--------------------------------------------------
--------------------------------------------------
-2-2-2------2-2-2-3-----3-3-3---------------------
--------------------------------------------------
Play this part about 4 times^

Pre chorus
-----------------------------------------------
--8-------8---------8------8------8------8-----
----9--------9--------9------9------9----------
------10--------10------10-----10-----10-------
-----------------------------------------------
-----------------------------------------------
^this is hard to hear in the song but its before the chorus

Chorus
-3---3---5---5--5-5-5--2--2--2-2--3-3--3--3-3------
-3---3---7---7--7-7-7--3--3--3-3--5-5--5--5-5------
-4---4---7---7--7-7-7--4--4--4-4--5-5--5--5-5------
-5---5---7---7--7-7-7--4--4--4-4--5-5--5--5-5------
-5---5---5---5--5-5-5--2--2--2-2--3-3--3--3-3------
-3---3---------------------------------------------
At the end of the chorus play the last two chords ONLY once

Verse 1
--------0----------0------------0---------0-----------0----
------3----------3------------3---------3-----------3------
-----------------------------------------------------------
-2-2------2-2-2------2-2-2-0------0-0-0----0-0-0-----------
-------------------------------------------------2---------
-----------------------------------------------------------

----------0-----------0----------0----------------
--------3-----------3----------3------------------
--------------------------------------------------
--------------------------------------------------
-2-2-2------2-2-2-3-----3-3-3---------------------
--------------------------------------------------
Play this part about 4 times^

Pre chorus
-----------------------------------------------
--8-------8---------8------8------8------8-----
----9--------9--------9------9------9----------
------10--------10------10-----10-----10-------
-----------------------------------------------
-----------------------------------------------
^this is hard to hear in the song but its before the chorus

Chorus
-3---3---5---5--5-5-5--2--2--2-2--3-3--3--3-3------
-3---3---7---7--7-7-7--3--3--3-3--5-5--5--5-5------
-4---4---7---7--7-7-7--4--4--4-4--5-5--5--5-5------
-5---5---7---7--7-7-7--4--4--4-4--5-5--5--5-5------
-5---5---5---5--5-5-5--2--2--2-2--3-3--3--3-3------
-3---3---------------------------------------------
At the end of the chorus play the last two chords ONLY once

Interlude

-7---7---7--8--5--5--5--7--2--2--2--2--3--3--3--5-----
-8-r-8-r-8r-8r-7r-7r-7r-7r-3r-3r-3r-3r-5r-5r-5r-7r----
-9---9---9--9--7--7--7--7--4--4--4--4--5--5--5--7-----
------------------------------------------------------
------------------------------------------------------
------------------------------------------------------
He plays this twice then he puts in a flanger and pics this

Solo

|-10B^full-----10----7----7--8-----8-----------
-----------------------------------------------
-----------------------------------------------
-----------------------------------------------
-----------------------------------------------
|----------------------------------------------
^this is the solo play it about 2 times


Verse 1
--------0----------0------------0---------0-----------0----
------3----------3------------3---------3-----------3------
-----------------------------------------------------------
-2-2------2-2-2------2-2-2-0------0-0-0----0-0-0-----------
-------------------------------------------------2---------
-----------------------------------------------------------

----------0-----------0----------0----------------
--------3-----------3----------3------------------
--------------------------------------------------
--------------------------------------------------
-2-2-2------2-2-2-3-----3-3-3---------------------
--------------------------------------------------
Play this part about 4 times^

End of with 333 on the A string

Thats it.





Comments


Popular Red Hot Chili Peppers tabs & chords
By The Way 2 Bass Tabs
Cant Stop 7 Bass Tabs
Dance Dance Dance Bass Tabs
Me & My Friends 1 Bass Tabs
By The Way 1 Chords
Californication 4 Tabs
Get Up And Jump Intro Tabs
I Could Die For You Tabs
Porcelain Tabs
Warped 2 Tabs


Song lyrics



↑ Back to top | Tablatures and chords are parodies/interpretations of the original songs. You may use it for private study, scholarship, research or language learning purposes only
© 2014 AZChords.com Contact us | Privacy policy | DMCA | Add/correct tabs | Request tabs | Top 50 tabs