» » »

Red Hot Chili Peppers, Can Stop Tabs (ver.1)

Artists:  A B C D E F G H I J K L M N O P Q R S T U V W X Y Z # 

Can Stop Tabs (ver.1)

Red Hot Chili Peppers Tabs
 Rating:
4/5 (4 votes)
Can	 Stop lessons Tabs too difficult? Try these video lessons and learn fast
1
                Hi, this is my first tab so don't rely on it being 100% correct but it sounds pretty much correct to me, the solol may be a little sketchy. This is a great song, but I was tired of seeing people tab it wrong so I decided to give it a try. 

b-bend

INTRO

e-------------------------------------------------------|
B-------------------------------------------------------|
G-------------------------------------------------------|8x		
D-------------------------------------------------------|		
A----7-9--7-9--7-9--7-9--7-9----------------------------|
E-------------------------------------------------------|


VERSE
There are two ways to play this.

Way 1
e-------------------------------------------------------
B-------------------------------------------------------
G--------7-9-------7-9---------7-9-------7-9------------
D----------------------------0-----0-0-0-----0-0-0------
A----7-7-----7-7-7-----7-7-7----------------------------
E-------------------------------------------------------

e-------------------------------------------------------
B-------------------------------------------------------
G---7-9--------7-9---------7-9--------7-9---------------
D------------------------------------------------------- 
A-------------------------------------------------------
E-7------7-7-7-----7-7-7-8------8-8-8-------8-8-8-------

                 OR
Way 2
e-------------------------------------------------------
B-------------------------------------------------------
G------7-9-------7-9---------7-9-------7-9--------------
D-------------------------------------------------------
A--7-7-----7-7-7-----7-7-7-5-----5-5-5-----5-5-5--------
E-------------------------------------------------------

e-------------------------------------------------------
B-------------------------------------------------------
G---7-9-------7-9---------7-9--------7-9----------------
D-------------------------------------------------------
A-------------------------------------------------------
E-7-----7-7-7-----7-7-7-8-----8-8-8------8-8-8----------

Chorus

G D Bm C 

(listen to the song to get it right.)

Bridge

e|-12-12-12---10-10-10---7-7-7---8-8-8-10-|
B|-12-12-12---10-10-10---7-7-7---8-8-8-10-|
G|-12-12-12---11-11-11---7-7-7---9-9-9-11-|
D|----------------------------------------|
A|----------------------------------------|
E|----------------------------------------|

Solo

e----12b--12---------------------------
B-------------15--15--12--12-----------
G---------------------------------12---
D--------------------------------------
A--------------------------------------
E--------------------------------------

e---12--14b--------12---------------------
B-------------15------12--15--------------
G----------------------------------14-12--
D-----------------------------------------
A-----------------------------------------
E-----------------------------------------

Thats the song and good luck!
            
Submit corrections

comments powered by Disqus
↑ Back to top | Red Hot Chili Peppers Tabs for Can Stop. Lyrics for acoustic guitar and electric guitar. 1 Tablatures and chords are parodies/interpretations of the original songs. You may use it for private study, scholarship, research or language learning purposes only