» » »

Red Hot Chili Peppers, Californication Solo Live In Rio De Janero Tabs (ver.1)

Artists:  A B C D E F G H I J K L M N O P Q R S T U V W X Y Z # 

Californication Solo Live In Rio De Janero Tabs (ver.1)

Red Hot Chili Peppers Tabs
 Rating:
4/5 (4 votes)
Californication Solo Live In Rio De Janero lessons Tabs too difficult? Try these video lessons and learn fast
1
                **I only tab for Guitar Tab Universe!**


Tuning: Standard (EADGBe)

Notes: you'll have to listen to the song to get the timing exact, for instance at the part
where John plays all of the 9's on the A string, because i am pretty sure i dont have that 
if you have comments or corrections.

Key:
b = bend
r = release bend
/ = slide 
h = hammer on



e-|--------9---------------------|--------9----------------------|
B-|--10--------------------------|--10---------------------------|
G-|------------11--11--11--------|-------------11/13-----11------|
D-|------------------------------|-------------------------------|
A-|------------------------------|-------------------------------|
E-|------------------------------|-------------------------------|

e-|------------------------------|-------------------------------|
B-|------------------------------|-------------------------------|
G-|--13/14--13--11----9--9-------|-------------/13--11---9---11--|
D-|--------------------------11--|--11-----11--------------------|
A-|------------------------------|-------------------------------|
E-|------------------------------|-------------------------------|

e-|------------------------------|-------------------------------|
B-|------------------------------|-------------------------------|
G-|------------------------------|-------------------------------|
D-|------------------------------|-------------------------------|
A-|-9-9-9--9-9-9--9-9-9-9-9--9-9-|-9-9-9--9-9-9--9-9-9-9-9-------|
E-|------------------------------|-------------------------------|

e-|------------------------------|-------------------------------|
B-|------------------------------|-------------------------------|
G-|------------------------------|----------9h11-11-11-11-11-11--|
D-|-9h11------11-11-11-11-11-11--|-11-11-------------------------|
A-|------12----------------------|-------------------------------|
E-|------------------------------|-------------------------------|

e-|------------------------------|-------------------------------|
B-|----------/14--12------12--12-|-14--12---------------12b14r12-|
G-|--11-11------------14---------|-----------14-13-14------------|
D-|------------------------------|-------------------------------|
A-|------------------------------|-------------------------------|
E-|------------------------------|-------------------------------|

e-|------------------------------|------------------12-----------|
B-|-----------------12b14r12-----|-12-------------------14-14-14-|
G-|-13-14---13-11----------------|------14--13--14---------------|
D-|------------------------------|-------------------------------|
A-|------------------------------|-------------------------------|
E-|------------------------------|-------------------------------|

e-|-12/14---14-14-14-14-14-------|--20b21--20--20b21---20b21-----|
B-|------------------------------|-------------------------------|
G-|------------------------------|-------------------------------|
D-|------------------------------|-------------------------------|
A-|------------------------------|-------------------------------|
E-|------------------------------|-------------------------------|
            
Submit corrections

comments powered by Disqus
↑ Back to top | Red Hot Chili Peppers Tabs for Californication Solo Live In Rio De Janero. Lyrics for acoustic guitar and electric guitar. 1 Tablatures and chords are parodies/interpretations of the original songs. You may use it for private study, scholarship, research or language learning purposes only