» » »

Red Hot Chili Peppers, Californication Tabs (ver.11)

Artists:  A B C D E F G H I J K L M N O P Q R S T U V W X Y Z # 

Californication Tabs (ver.11)

Red Hot Chili Peppers Tabs
 Rating:
4/5 (4 votes)
Californication  lessons Tabs too difficult? Try these video lessons and learn fast
                (Live)
(Intro)

e-535--5353---------------------------------------|
G----------55---5/8--------5---------8-8-10/12-10-|
B-----------------------2/5-7575--/9--9-----------|
D-------------------757---------------------------|
A-------------------------------------------------|
E-------------------------------------------------|

e----8--8-10/12-12--12-12-10--10-------------------|
G-10--10--------------------13--13-12-10-12-10--10-|
B---------------------------------------------12---|
D--------------------------------------------------|
A--------------------------------------------------|
E--------------------------------------------------|

e-12-10--10----------------------12-10--10-------------------------|
G------13--13-12-13-12-10-12-10-------13--13-12-13-12-10-12-10--10-|
B------------------------------12-----------------------------12---|
D------------------------------------------------------------------|
A------------------------------------------------------------------|
E------------------------------------------------------------------|

e-12-10--10---------------------------------------------------------|
G------13--13-12-13-12-10-12-10--10---10-8-8------------------------|
B------------------------------12---------9-9797--7-----------------|
D-----------------------------------------------10-10-9-10----------|
A-------------------------------------------------------------------|
E-------------------------------------------------------------------|

e-----------------------------------------|
G-----------------------------------------|
B-----------------------------------------|
D------14-----14-----14-----14-----14--14-|
A-12-12--12-12--12-12--12-12--12-12--12---|
E-----------------------------------------|

e--------------------------------------------|
G--------------------------------------------|
B--------------------------------------------|
D------15-----17-----15-----17-----15-----17-|
A-12-12--12-12--12-12--12-12--12-12--12-12---|
E--------------------------------------------|

e----------12-12-12-12-12-12-12-12-12-15-15-15-15-15-15-15-15-15-15-|
G----------13-13-13-13-13-13-13-13-13-13-13-13-13-13-13-13-13-13-13-|
B-14-12-14-14-14-14-14-14-14-14-14-14-14-14-14-14-14-14-14-14-14-14-|
D-------------------------------------------------------------------|
A-------------------------------------------------------------------|
E-------------------------------------------------------------------|

e-12-12-12-12-12-12-12-12-12-15-15-15-15-15-15-15-15-15-15-|
G-13-13-13-13-13-13-13-13-13-13-13-13-13-13-13-13-13-13-13-|
B-14-14-14-14-14-14-14-14-14-14-14-14-14-14-14-14-14-14-14-|
D----------------------------------------------------------|
A----------------------------------------------------------|
E----------------------------------------------------------|

e---------------8/12-12-12-8-10-8785--5----------------------|
B-10-8-10-10--10-----------------------87575--53-3-----------|
G-----------------------------------------------5-54-45-5/7--|
D----------------------------------------------------------7-|
A------------------------------------------------------------|
E------------------------------------------------------------|


e-----------------------------------------------------------------------|
B-----------------------------------------------------------------12-10-|
G--------------------12-12h14-14-----------------------12-12h14-14------|
D------------12h14-14-----------14p12p10h12-12-12h14-14-----------------|
A-12-12-12h14-----------------------------------------------------------|
E-----------------------------------------------------------------------|


e---8--8-10/12-12--12-12-12p10-10-10--10-10-88--88-8p700-|
B-10-10--------------------------------------------------|
G--------------------------------------------------------|
D--------------------------------------------------------|
A--------------------------------------------------------|
E--------------------------------------------------------|


e-00-12-00-10-00-8-00-7-00-5-00-     -00-15-00-12-00-15-00-12-00-15-0-17----|
B-------------------------------     ---------------------------------------|
G------------------------------- (X3)---------------------------------------|
D-------------------------------     ---------------------------------------|
A-------------------------------     ---------------------------------------|
E-------------------------------     ---------------------------------------|


e-17-00-17-00-17-00-17-17-19b-17-17-17-17-17-17-17-17-17-17-15-12-15-|
B--------------------------------------------------------------------|
G--------------------------------------------------------------------|
D--------------------------------------------------------------------|
A--------------------------------------------------------------------|
E--------------------------------------------------------------------|


e-17-17-17-17-17-17-17-17-17-17-15-13/12-13p12---|
B------------------------------------------------|
G------------------------------------------------|
D------------------------------------------------|
A------------------------------------------------|
E------------------------------------------------|

(softer)
e-(12)10--10----------------------12-10--10------------------------|
G-------13--13-12-13-12-10-12-10-------13--13-12-13-12-10-10-10-10-|
B-------------------------------12---------------------------------|
D------------------------------------------------------------------|
A------------------------------------------------------------------|
E------------------------------------------------------------------|

e-12-10--10----------------------12-10--10-------------------------|
G------13--13-12-13-12-10-12-10-------13--13-12-13-12-10-12-10--10-|
B------------------------------12-----------------------------12---|
D------------------------------------------------------------------|
A------------------------------------------------------------------|
E------------------------------------------------------------------|

e---------------------------------|
B-----10-------10---------10------|
G-9-12--12-9-12---12-9-12---12----|..
D---------------------------------|
A---------------------------------|
E---------------------------------|
            
Submit corrections

comments powered by Disqus
↑ Back to top | Red Hot Chili Peppers Tabs for Californication. Lyrics for acoustic guitar and electric guitar. Tablatures and chords are parodies/interpretations of the original songs. You may use it for private study, scholarship, research or language learning purposes only