» » »

Californication, Exclusive Tabs (ver.3)

Artists:  A B C D E F G H I J K L M N O P Q R S T U V W X Y Z # 

Californication, Exclusive Tabs (ver.3)

Red Hot Chili Peppers
Rating:
0/5 (0 votes)

Hard to play? Try these video lessons and learn fast.
                Californication Solo
100% accurate I’ve seen a lot of incorrect Californication solos but I’m
sure this one is 100% correct
e---9--------9---------------------------------------------------------
b-10------10----11^----------------------------------------------------
g-----11^------------(11)--11-11-11-11/9------------9-11^-9------------
d----------------------------------------11-11-9-11---------11---------
a----------------------------------------------------------------------
e----------------------------------------------------------------------

e----9-12-14----9-12-14-14^-14-17-16-14----14--------------------------
b-10---------10-------------------------17----17-14-17-14-14-----14----
g—-----------------------------------------------------------16^----16^
d----------------------------------------------------------------------
a----------------------------------------------------------------------
e----------------------------------------------------------------------

e-----------14^-12----12----12----12-10-9------------------------------
b-14--17-14--------14----14----10--------------------------------------
g-16^------------------------------------------------------------------
d----------------------------------------------------------------------
a----------------------------------------------------------------------
e----------------------------------------------------------------------
            
Hard to play? Try these video lessons and learn fast. | Correct




comments powered by Disqus
↑ Back to top | Tablatures and chords are parodies/interpretations of the original songs. You may use it for private study, scholarship, research or language learning purposes only