>
 >
Californication, Exclusive 1

Californication, Exclusive 1 Guitar Tabs

Red Hot Chili Peppers - Californication, Exclusive 1 chords, tabs, tablatures, lyrics

Guitar lessons | Add/correct | Request | Top 50 tabs Artists:  A B C D E F G H I J K L M N O P Q R S T U V W X Y Z 0-9

Californication, Exclusive 1 Guitar Tabs – Red Hot Chili Peppers

CD, Sheet music, Poster

Do you like Californication, Exclusive 1? Share with your friends now
TabsTabs v2Tabs v3
E -------------------|-------------|-------------------|-------------
B -----0-1-----------|-------------|-----0-1-----------|-------------
G -------------------|-----0-2-----|-------------------|-----0-2-----
D ---2-----2-0h2p0---|-------0-0---|---2-----2-0h2p0---|-------3-3-0-
A -0---------------3-|---3-------2-|-0---------------3-|---3---------
E -------------------|-1-----------|-------------------|-1-----------

E -------|-------|-------|-----1-
B -----1-|-------|-------|-----3-
G ---0---|-----0-|-------|---2---
D -------|---0---|-----3-|-0-----
A -3-----|-------|---3---|-------
E -------|-3-----|-1-----|-------

PreChorus:  (Strumming not shown.) 
                        _ 
    Am    F?    Am    F? \ 
E---0-----0-----0-----0-  \ 
B---1-----1-----1-----1-   \ 
G---2-----2-----2-----2-    | <== Play 3 times 
D---2-----3-----2-----3-   / 
A---0-----3-----0-----3-  / 
E-----------------------_/ 

Chorus:  (Strumming not shown.) 

    C     G     Dm    Am    C     G     Dm 
E---0-----------1-----0-----0-----------1- 
B---1-----3-----3-----1-----1-----3-----3- 
G---0-----0-----2-----2-----0-----0-----2- 
D---2-----0-----0-----2-----2-----0-----0- 
A---3-----2-----------0-----3-----2------- 
E----------------------------------------- 

Solo: 

        (Start w/ string bent whole step up, then drop to normal) 
            \/ 
E------9---------------------9------------------------------------ 
B-10--------------------10---------------------------------------- 
G----------[13]11----------------[13]11-------11-11-11-11p9------- 
D-----------------------------------------------------------11-11- 
A----------------------------------------------------------------- 
E----------------------------------------------------------------- 

E------------------------------9---12---14----------9---12---14b16-14-- 
B-----------[13]11--------10-------------------10---------------------- 
G-------9----------9--------------------------------------------------- 
D--9-11--------------11------------------------------------------------ 
A---------------------------------------------------------------------- 
E---------------------------------------------------------------------- 

E-17-16-14-12-14-12----12-----^12--^12--^12--12---- 
B-------------------14----14---14---14---14-----14- 
G-------------------------------------------------- 
D-------------------------------------------------- 
A-------------------------------------------------- 
E-------------------------------------------------- 

E-14b16r14-12----12----------12---------- 
B-------------14----14-12-------15-14---- 
G-------------------------14----------13- 
D---------------------------------------- 
A---------------------------------------- 
E---------------------------------------- 

This is my first tab so it probably has a few mistakes in it, but it sounds ok!

"When you are suffering know that I have betrayed you..." - Marilyn Manson





Comments


Popular Red Hot Chili Peppers tabs & chords
21st Century 1 Bass Tabs
Desecration Smile 3 Bass Tabs
Quick Jam Bass Tabs
Cmon Girl Chords
Around The World Tabs
Californication 12 Tabs
Californication 9 Tabs
Dani California 1 Tabs
I Could Have Lied 4 Tabs
They're Red Hot 2 Tabs


Song lyrics



↑ Back to top | Tablatures and chords are parodies/interpretations of the original songs. You may use it for private study, scholarship, research or language learning purposes only
© 2014 AZChords.com Contact us | Privacy policy | DMCA | Add/correct tabs | Request tabs | Top 50 tabs