» » »

Red Hot Chili Peppers, Californication Tabs (ver.14)

Artists:  A B C D E F G H I J K L M N O P Q R S T U V W X Y Z # 

Californication Tabs (ver.14)

Red Hot Chili Peppers Tabs
 Rating:
4/5 (4 votes)
Californication lessons Tabs too difficult? Try these video lessons and learn fast
1
                Red Hot Chilli Peppers Californication.
  
C   A   L   I   F   O   R   N   I   C   A   T   I   O   N   

Intro-lead
e-------------------------------------------
b-------0---1------------------------------
g----------------------------------0------2    Repeat 4 times
d----2-------------------------------------
a-0---------------------------3------------
e-----------------------1-------------------

Verse lead plays intro rythem strums the chords

Am                                           F                                     Am
Psychic spies from china try to steal your minds elazation. Little girls from Sweeden dream of 
F                                          C                        G                          F                Dm
silver screen quotations. And if you want these kind of dreams its Californication.

Do this throughout the verses

Pre-Chorus
Am                                        Fmaj7                                Am            Fmaj7
Pay your surgeon very well to break the spell of ageing. Celebrity skin is this your chin or is 
                                        Am                Fmaj7    Am                                  Fmaj7 
that the war your waging?      First born unicorn           hard core soft porn.

Chorus
C                   G7     Dm9   Am     C                G7     Dm9
Dream of Californication               dream of californication


Solo with slight distortion. used with compressor (not required)

e-----9--------------------9-----------------------------------------------------------------
b-10----------------10----------------------------------------------------------------------
g------------^11--------------^11-------11--11--11-/-9-----------------9----^11-----9---
d------------------------------------------------------------11---9---11------------------11
a---------------------------------------------------------------------------------------------
e---------------------------------------------------------------------------------------------

e--------9-----12---14-------9--12---^14-----14-----17--16--14--------------------------
b---10-------------------10------------------------------------------17----14---14----14--
g----------------------------------------------------------------------------------^16--^16--
d---------------------------------------------------------------------------------------------
a----------------------------------------------------------------------------------------------
e----------------------------------------------------------------------------------------------

e----------------------------^14-----12---------12--------------------12---10----9------
b---14----14---17----14------------------14--------14-----12----10-------------------10
g---^16--^16-------------------------------------------------------------------------------
d--------------------------------------------------------------------------------------------
a---------------------------------------------------------------------------------------------
e---------------------------------------------------------------------------------------------

Now the intro begins again

Reapeat Chorus

Lyrics (these took me a really long time)

Psychic spies from China try to  steal your minds elation

little girls from sweeden dream of silver screen quotations

and if you want these kind of dreams its californication.

Its the edge of the world

And all of western civization

The sun may rise in the east

At least it settles in the final location

It`s understood that Hollywood sell Californication

Pay your surgeon very well to break the spell of ageing

Celerity skin is this your chin or is that the war your waging?

Chorus

First born unicorn hard core soft porn

Dream of californication dream of californication.

Marry me girl be my fairy to the world

Be my very own constellation

A teenage bride with a baby inside getting high of information

And buy me a star on the boulavard its californication

Space may be the final frontier but its made

in a hollywood basement

Cobain can you hear the spreres

singing songs off station to station

And alderons not far away its californication

Born and raised by who praise

Control of population everybodys been there and i dont

mean on vaction

Chorus

Destruction leads to a very rough road but it also 

breeds creation

And earthquakes are to a girls guitar

therye just another good vibration

and tidal waves couldent save the world from californication

Pay your surgeon very well to break the spell of ageing

sicker than the rest 

there is no test

but is this what your craving

Well that is it I had alot of fun doing this and it took me alot of time.



 
            
Submit corrections

comments powered by Disqus
↑ Back to top | Red Hot Chili Peppers Tabs for Californication. Lyrics for acoustic guitar and electric guitar. 1 Tablatures and chords are parodies/interpretations of the original songs. You may use it for private study, scholarship, research or language learning purposes only