» » »

Cabron Right Way Tabs (ver.1)

Artists:  A B C D E F G H I J K L M N O P Q R S T U V W X Y Z # 

Cabron Right Way Tabs (ver.1)

Red Hot Chili Peppers
Rating:
0/5 (0 votes)

Hard to play? Try these video lessons and learn fast.
                Normal Tuning, Awesome Song, Wasn't Any right ones out there so, im takin this one. One of There Best Songs, from the Best Band Ever.

|----10~---------7~------10~------7~------------------------------------
|----0~----------0~-------0~------0~------------------------------------
|----0~----------0~-------0~------0~------------------------------------
|----9~----------5~-------9~------5~------------------------------------
|----X~----------7~------10~------7~------------------------------------
|---10~----------0~------10~------0~------------------------------------
 Intro 1^^^
John Plays This Part Really *** Fast but, I can do it, you can to im sure

|-------------0----------------0------2~------------------------------------------
|-----1---------1-----1----------1----3~------------------------------------------
|-------0---0-----------0---0---------2~------------------------------------------
|---------2---------------2-----------0~------------------------------------------
|--3---------------3--------------------------------------------------------------
|---------------------------------------------------------------------------------
 Intro^^^2
|------------3-3-3-3-3-3------------0-0-0-0-0-0-----------------------------------
|--0---------0-0-0-0-0-0------------0-0-0-0-0-0-----------------------------------
|----2---0---0-0-0-0-0-0--2-0-------0-0-0-0-0-0--------X-2------------------------
|------4-----0-0-0-0-0-0------4-0---2-2-2-2-2-2-----------------------------------
|------------X-X-X-X-X-X----------2-2-2-2-2-2-2-----------------------------------
|------------3-3-3-3-3-3------------0-0-0-0-0-0-----------------------------------

|-----3-3-3-3-3-3-3-3--0-0-0-0-0-0-0-0--------------------------------------------
|-----0-0-0-0-0-0-0-0--0-0-0-0-0-0-0-0--------------------------------------------
|-----0-0-0-0-0-0-0-0--0-0-0-0-0-0-0-0--------X-2---------------------------------
|-----0-0-0-0-0-0-0-0--2-2-2-2-2-2-2-2--------------------------------------------
|-----X-X-X-X-X-X-X-X--2-2-2-2-2-2-2-2--------------------------------------------
|-----3-3-3-3-3-3-3-3--0-0-0-0-0-0-0-0--------------------------------------------
 Chorus (Cabron, Cabron) ^^^


|------------3-3-3-3-3-3------------0-0-0-0-0-0-----------------------------------
|--0---------0-0-0-0-0-0------------0-0-0-0-0-0-----------------------------------
|----2---0---0-0-0-0-0-0--2-0-------0-0-0-0-0-0---All--X-2------------------------
|------4-----0-0-0-0-0-0------4-0---2-2-2-2-2-2-----------------------------------
|------------X-X-X-X-X-X----------2-2-2-2-2-2-2-----------------------------------
|------------3-3-3-3-3-3------------0-0-0-0-0-0-----------------------------------

|-------------0-0-0-0-0-0-0-0--2-2-2-2-2-2-2-2--0-0-0-0-0-0-0-0-2-2-2-2-2-2-2-2---
|-------------1-1-1-1-1-1-1-1--3-3-3-3-3-3-3-3--1-1-1-1-1-1-1-1-3-3-3-3-3-3-3-3---
|-------------0-0-0-0-0-0-0-0--2-2-2-2-2-2-2-2--0-0-0-0-0-0-0-0-2-2-2-2-2-2-2-2---
|--2-0--------2-2-2-2-2-2-2-2--0-0-0-0-0-0-0-0--2-2-2-2-2-2-2-2-0-0-0-0-0-0-0-0---
|------2-0-3--3-3-3-3-3-3-3-3-------------------3-3-3-3-3-3-3-3-------------------
|-------------0-0-0-0-0-0-0-0-------------------0-0-0-0-0-0-0-0-------------------

|--10------------7----------10----------7----------0----------2------------------
|---0------------0-----------0----------0----------1----------3------------------
|---0--Times 8---0--Times 8--0--Times 8-0-Times 8--0-Times 8--2-Times 8----------
|---9------------5-----------9----------5----------2----------0------------------
|---X------------7----------10----------7----------3-----------------------------
|--10------------0----------10----------0----------0-----------------------------

Verse ^^^

This is how it is Planned Out 

Intro 1
Intro 2
Chorus
Verse
Chorus
Verse
CHorus and Solo Until it Fades, I'm sorry about the Solo, Im Just Putting out the Acoustic Parts ,Thanx, Chris
            
Hard to play? Try these video lessons and learn fast. | Correct




comments powered by Disqus
↑ Back to top | Tablatures and chords are parodies/interpretations of the original songs. You may use it for private study, scholarship, research or language learning purposes only