» » »

Cabron Tabs (ver.5)

Artists:  A B C D E F G H I J K L M N O P Q R S T U V W X Y Z # 

Cabron Tabs (ver.5)

Red Hot Chili Peppers
Rating:
0/5 (0 votes)

Hard to play? Try these video lessons and learn fast.
                Strum these first four chords
e|---17------10-------17------10--------------------------------------------|
B|---15------12-------15------12--------------------------------------------|
G|---14------11-------14------11--------------------------------------------|
D|---12-------9-------12-------9--------------------------------------------|
A|--------------------------------------------------------------------------|
E|--------------------------------------------------------------------------|
Then pick these notes (its easier with a plectrum, but i use my fingers) and
strum the chord after it
e|-----7------7------7----7-----7-----7--------9----------------------------|
B|-------8------8-----------8-----8-----------10----------------------------|
G|-----------------7----------------7----------9----------------------------|
D|---5-----5------------5-----5----------------7----------------------------|
A|--------------------------------------------------------------------------|
E|--------------------------------------------------------------------------|
The following bit is played throughout most of the song
e|--------------------------17----17----17----17----17----------------------|
B|--7----5----3----0----3---15----15----15----15----15----------------------|
G|--------------------------14----14----14----14----14----------------------|
D|--------------------------12----12----12----12----12----------------------|
A|--------------------------------------------------------------------------|
E|--------------------------------------------------------------------------|

e|--------------------------10----10----10----10----10----------------------|
B|--5----3----2-------------12----12----12----12----12----------------------|
G|-----------------2--------11----11----11----11----11----------------------|
D|----------------------4----9-----9-----9-----9-----9----------------------|
A|--------------------------------------------------------------------------|
E|--------------------------------------------------------------------------| x 2
Cabron, Cabron......
repeat the above 4 times
then the line beginning I am small but....
play this
e|--7----7----7----7----7----7------9----9----9----9----9----9--------------|
B|--8----8----8----8----8----8-----10---10---10---10---10---10--------------|
G|--7----7----7----7----7----7------9----9----9----9----9----9--------------|
D|--5----5----5----5----5----5------7----7----7----7----7----7--------------|
A|--------------------------------------------------------------------------|
E|--------------------------------------------------------------------------|
After this, its is basically the same chords used, but in different orders, but
it is pretty simple to work out. You can do that for yourself

There is a little overplay part that is played over the chords (hence the name
overplay), and it goes like so
e|------9--slide up to--14---9--slide down to--7----------------------------|
B|--------------------------------------------------------------------------|
G|--------------------------------------------------------------------------|
D|--------------------------------------------------------------------------|
A|--------------------------------------------------------------------------|
E|--------------------------------------------------------------------------|
This is played a few times. Again it is pretty simple to work out
            
Hard to play? Try these video lessons and learn fast. | Correct




comments powered by Disqus
↑ Back to top | Tablatures and chords are parodies/interpretations of the original songs. You may use it for private study, scholarship, research or language learning purposes only