» » »

Red Hot Chili Peppers, Cabron Tabs (ver.3)

Artists:  A B C D E F G H I J K L M N O P Q R S T U V W X Y Z # 

Cabron Tabs (ver.3)

Red Hot Chili Peppers Tabs
Rating:
0/5 (0 votes)
Cabron lessons Tabs too difficult? Try these video lessons and learn fast
                Red Hot Chili Peppers - Cabron 

Let ring = :

Intro:
e|-10:---7:---10:---7:--|
B|-10:---7:---10:---7:--|
G|-11:---7:---11:---7:--|
D|-12:---9:---12:---9:--|
A|-12:---9:---12:---9:--|
E|-10:---7:---10:---7:--|

e|-----------------------------|
B|------12-----12-----12---14--|
G|--------12-----12-----12-14--|
D|----12-------------------14--|
A|-10--------10-----10-----12--|(2x)
E|-----------------------------|

Verse:    
e|------------10-10-10-10-------------7-7-7-7--|
B|------------10-10-10-10-------------7-7-7-7--|
G|-11-9-------11-11-11-11-------------7-7-7-7--|
D|------12-11-12-12-12-12--12-11-9----9-9-9-9--|
A|------------12-12-12-12----------12-9-9-9-9--|
E|------------10-10-10-10-------------7-7-7-7--|

Chorus:
e|-3-3-3-3-3--5-5-5-5-5--10-10-10-10-10--7-7-7-7-7--|
B|-3-3-3-3-3--5-5-5-5-5--10-10-10-10-10--7-7-7-7-7--|
G|-4-4-4-4-4--6-6-6-6-6--11-11-11-11-11--7-7-7-7-7--|
D|-5-5-5-5-5--7-7-7-7-7--12-12-12-12-12--9-9-9-9-9--|
A|-5-5-5-5-5--7-7-7-7-7--12-12-12-12-12--9-9-9-9-9--|
E|-3-3-3-3-3--5-5-5-5-5--10-10-10-10-10--7-7-7-7-7--|

Solo:
e|-----------------------|
B|--14/19-19--14/12-12---|
G|-----------------------|
D|-----------------------|
A|-----------------------|
E|-----------------------|

Thanks, Bye, DAN.
            
Submit corrections

comments powered by Disqus
↑ Back to top | Red Hot Chili Peppers Tabs for Cabron. Lyrics for acoustic guitar and electric guitar. Tablatures and chords are parodies/interpretations of the original songs. You may use it for private study, scholarship, research or language learning purposes only