» » »

Red Hot Chili Peppers, By The Way23 Bass tabs (ver.8)

Artists:  A B C D E F G H I J K L M N O P Q R S T U V W X Y Z # 

By The Way23 Bass tabs (ver.8)

Red Hot Chili Peppers Tabs
 Rating:
4/5 (4 votes)
By The Way23 lessons Tabs too difficult? Try these video lessons and learn fast
                This is my fist tab so forgive me if i screw it up
ive shearched through lots of tabs and ive put together my own.

Intro
G-1717171717171717-1717171717171717-99999999
D-1515151515151515-1414141414141414-77777777
A-------------------------------------------
E-------------------------------------------

G-1717171717171717-1717171717171717-1414141414141414-2121-1919
D-1515151515151515-1414141414141414-1414141414141414-1919-1717
A-------------------------------------------------------------
E-------------------------------------------------------------

G-1717171717171717-1717171717171717-99999999/1717171717171717
D-1515151515151515-1414141414141414-77777777/1515151515151515
A------------------------------------------------------------
E------------------------------------------------------------

G-2121212121212121-19191919191919191919191919191919
D-1919191919191919-17171717171717171717171717171717
A--------------------------------------------------
E--------------------------------------------------

Verse
G----------------------   \
D---------3------------ X3 \
A-5-5-3h5---0h3h5-0h3h5     \
E----------------------      \_
after you play that 3X        _ Repeat all 4X
play this                    /
G----------------------     /
D----------------------    /
A-5-5-3h5-6-6-6-6------   /
E----------------------  /

1st and 3nd Chorus 
G---------------------------------------------------------------
D-3-3-3-3/7/10-10-10-10h12-12-12-12-12-10------------10-10-10-10
A----------------------------------------12-10-8-8-8-8----------
E---------------------------------------------------------------

G-----------------
D-7-7-7-7h8-8-8-8\
A-----------------
E-----------------
on 3rd repeat 2X.

2nd Chorus
G-1717171717171717-1717171717171717-1414141414141414
D-1515151515151515-1414141414141414-1414141414141414
A---------------------------------------------------
E---------------------------------------------------

G-1717171717171717-1717171717171717-1414141414141414-2121-1919
D-1515151515151515-1414141414141414-1414141414141414-1919-1717
A-------------------------------------------------------------
E-------------------------------------------------------------

G-1717171717171717-1717171717171717-1414141414141414-1717171717171717
D-1515151515151515-1414141414141414-1414141414141414-1515151515151515
A--------------------------------------------------------------------
E--------------------------------------------------------------------

G-2121212121212121-19191919191919191919191919191919
D-1919191919191919-17171717171717171717171717171717
A--------------------------------------------------
E--------------------------------------------------

intro
verse
1st chorus
verse
2nd chorus
verse
3rd chorus

enjoy!!!
            
Submit corrections

comments powered by Disqus
↑ Back to top | Red Hot Chili Peppers Bass for By The Way23. Lyrics for acoustic guitar and electric guitar. Tablatures and chords are parodies/interpretations of the original songs. You may use it for private study, scholarship, research or language learning purposes only