» » »

Bunker Hill Bass tabs (ver.2)

Artists:  A B C D E F G H I J K L M N O P Q R S T U V W X Y Z # 

Bunker Hill Bass tabs (ver.2)

Red Hot Chili Peppers
Rating:
0/5 (0 votes)

Hard to play? Try these video lessons and learn fast.
                -------------------------------------------------------------------------------
			     BUNKER HILL - Red Hot Chili Peppers
-------------------------------------------------------------------------------


This is a basic tab for the B-side "Bunker Hill".  Flea has some extra improv moments
you'll have to figure out on your own if you want to copy him exactly.  The outro isn't
because it's more complicated and I don't have the time.  Before you get mad at me 
understand that at the time I made this there were no other bass tabs for this song, and
just laying something down for you to have an idea.

Tuning:

INTRO/VERSE

G|---------------------------------------------------------------------------|
D|----------0-0-0-0-0-0----2-2-2---------------------------------------------|
A|-2--2-2-2-----------------------------0--0h2-------------------------------|
E|-----------------------0-------0--0-0--------------------------------------|


PRECHORUS

G|---------------------------------------------------------------------------|
D|---------------------------------------------------------------------------|
A|-3--3--3--3----------------------------------------------------------------|
E|---------------------------------------------------------------------------|


CHORUS
(strum!)
G|--4--4-4--4-4-4-4-------------------7--7-7--7-7-7-7------------------------|
D|--2--2-2--2-2-2-2--5--5-5--5-5-5-5--5--5-5--5-5-5-5------------------------|
A|-------------------3--3-3--3-3-3-3-----------------------------------------|
E|---------------------------------------------------------------------------|

BRIDGE
G|---------------------------------------------------------------------------|
D|---------------------------------------------------------------------------|
A|-2--2--2--2--3--3--3--3----------------------------------------------------|
E|---------------------------------------------------------------------------|

| /  slide up
| \  slide down
| h  hammer-on
| p  pull-off
| ~  vibrato
| +  harmonic
| x  Mute note
===============================================================================
            
Hard to play? Try these video lessons and learn fast. | Correct




comments powered by Disqus
↑ Back to top | Tablatures and chords are parodies/interpretations of the original songs. You may use it for private study, scholarship, research or language learning purposes only