» » »

Buckle Down Bass tabs (ver.5)

Artists:  A B C D E F G H I J K L M N O P Q R S T U V W X Y Z # 

Buckle Down Bass tabs (ver.5)

Red Hot Chili Peppers
Rating:
0/5 (0 votes)

Hard to play? Try these video lessons and learn fast.
                -------------------------------------------------------------------------------
			     Buckle Down - Red Hot Chili Peppers
-------------------------------------------------------------------------------



Tuning: Standard

Verse 1:
G|------------------------|-----------------------------------|
D|------------------------|-----------------------------5-5-3-|
A|-0-2-3--0-2-3--0-2-3----|-0-2-3--0-2-3--0-2-3--0-2-3-5------|
E|---------------------0~-|-----------------------------------|

Interlude 1:
G|----------------|-----------------------|---------------|------------------|
D|-----------x3-3-|-----------3-x-3-3-5-3 |----------x3-3-|-----------6-5-3--|
A|--5-x-2-x-3-----|-5-x-2-x-3-------------|-5-x-2-x-3-----|-5-x-3-x-2------5-|
E|----------------|-----------------------|---------------|------------------|

Verse 2:
G|------------------------|------------------------------------|
D|------------------------|------------------------------6-5-3-|
A|-0-2-3--0-2-3--0-2-3----|-0-2-3--0-2-3--0-2-3--0-2-3-5-------|
E|---------------------0~-|------------------------------------|

Chorus:
G|----------------------|----------------------|----------------------|----------------------|------|
D|----------------------|----------------------|----------------------|----------------------|------|
A|---------7-------7----|---------7-------7----|---------7-------7----|---------7-------7----|------|
E|-3-2-1-0--0-0-0-0-0-0-|-3-2-1-0--0-0-0-0-0-0-|-3-2-1-0--0-0-0-0-0-0-|-3-2-1-0--0-0-0-0-0-0-|-3-2-1|
   T T T T PT T T TPT T   T T T T PT T T TPT T   T T T T PT T T TPT T   T T T T PT T T TPT T   T T T

Bass Solo 1:
G|-----------------------|-----------------------|-----------------------|----------------------|
D|-----------------------|-----------------------|-----------------------|----5---5---5---5---5-|
A|-----7---5---4---5-5h7-|-----7---5---4---5-5h7-|-----7---5---4---5-5h7-|----------------------|
E|-0-0--x-x-x-x-x-x-x----|-0-0--x-x-x-x-x-x-x----|-0-0--x-x-x-x-x-x-x----|-x-x-x-x-x-x-x-x-x-x--|
   T T PT TPT TPT TPTP     T T PT TPT TPT TPTP     T T PT TPT TPT TPTP     T TPT TPT TPT TPT TP

G|-----------------------|-----------------------|-----------------------|----------------------|
D|-----------------------|-----------------------|-----------------------|----5---5---5---5---5-|
A|-----7---5---4---5-5h7-|-----7---5---4---5-5h7-|-----7---5---4---5-5h7-|----------------------|
E|-0-0--x-x-x-x-x-x-x----|-0-0--x-x-x-x-x-x-x----|-0-0--x-x-x-x-x-x-x----|-x-x-x-x-x-x-x-x-x-x--|
   T T PT TPT TPT TPTP     T T PT TPT TPT TPTP     T T PT TPT TPT TPTP     T TPT TPT TPT TPT TP

Verse 3:
G|--------------------------------|
D|----------------------------17/-|
A|-0-2-3--0-2-3--0-2-3--0-2-------|
E|--------------------------------|

G|------------------------|-----------------------------------|
D|------------------------|-----------------------------5-5-3-|
A|-0-2-3--0-2-3--0-2-3----|-0-2-3--0-2-3--0-2-3--0-2-3-5------|
E|---------------------0~-|-----------------------------------|


Interlude 1:
G|----------------|-----------------------|---------------|------------------|
D|-----------x3-3-|-----------3-x-3-3-5-3 |----------x3-3-|-----------6-5-3--|
A|--5-x-2-x-3-----|-5-x-2-x-3-------------|-5-x-2-x-3-----|-5-x-3-x-2------5-|
E|----------------|-----------------------|---------------|------------------|

Verse 4:
G|------------------------|------------------------------------|
D|------------------------|------------------------------6-5-3-|
A|-0-2-3--0-2-3--0-2-3----|-0-2-3--0-2-3--0-2-3--0-2-3-5-------|
E|---------------------0~-|------------------------------------|

Chorus:
G|----------------------|----------------------|----------------------|----------------------|------|
D|----------------------|----------------------|----------------------|----------------------|------|
A|---------7-------7----|---------7-------7----|---------7-------7----|---------7-------7----|------|
E|-3-2-1-0--0-0-0-0-0-0-|-3-2-1-0--0-0-0-0-0-0-|-3-2-1-0--0-0-0-0-0-0-|-3-2-1-0--0-0-0-0-0-0-|-3-2-1|
   T T T T PT T T TPT T   T T T T PT T T TPT T   T T T T PT T T TPT T   T T T T PT T T TPT T   T T T

Bass/Guitar Solo :
G|-----------------------|-----------------------|-----------------------|----------------------|
D|-----------------------|-----------------------|-----------------------|----5---5---5---5---5-|
A|-----7---5---4---5-5h7-|-----7---5---4---5-5h7-|-----7---5---4---5-5h7-|----------------------|
E|-0-0--x-x-x-x-x-x-x----|-0-0--x-x-x-x-x-x-x----|-0-0--x-x-x-x-x-x-x----|-x-x-x-x-x-x-x-x-x-x--|
   T T PT TPT TPT TPTP     T T PT TPT TPT TPTP     T T PT TPT TPT TPTP     T TPT TPT TPT TPT TP

G|-----------------------|-----------------------|-----------------------|----------------------|
D|-----------------------|-----------------------|-----------------------|----5---5---5---5---5-|
A|-----7---5---4---5-5h7-|-----7---5---4---5-5h7-|-----7---5---4---5-5h7-|----------------------|
E|-0-0--x-x-x-x-x-x-x----|-0-0--x-x-x-x-x-x-x----|-0-0--x-x-x-x-x-x-x----|-x-x-x-x-x-x-x-x-x-x--|
   T T PT TPT TPT TPTP     T T PT TPT TPT TPTP     T T PT TPT TPT TPTP     T TPT TPT TPT TPT TP

G|-----------------------|-----------------------|-----------------------|----------------------|
D|-----------------------|-----------------------|-----------------------|----5---5---5---5---5-|
A|-----7---5---4---5-5h7-|-----7---5---4---5-5h7-|-----7---5---4---5-5h7-|----------------------|
E|-0-0--x-x-x-x-x-x-x----|-0-0--x-x-x-x-x-x-x----|-0-0--x-x-x-x-x-x-x----|-x-x-x-x-x-x-x-x-x-x--|
   T T PT TPT TPT TPTP     T T PT TPT TPT TPTP     T T PT TPT TPT TPTP     T TPT TPT TPT TPT TP

G|-----------------------|-----------------------|-----------------------|----------------------|
D|-----------------------|-----------------------|-----------------------|----5---5---5---5---5-|
A|-----7---5---4---5-5h7-|-----7---5---4---5-5h7-|-----7---5---4---5-5h7-|----------------------|
E|-0-0--x-x-x-x-x-x-x----|-0-0--x-x-x-x-x-x-x----|-0-0--x-x-x-x-x-x-x----|-x-x-x-x-x-x-x-x-x-x--|
   T T PT TPT TPT TPTP     T T PT TPT TPT TPTP     T T PT TPT TPT TPTP     T TPT TPT TPT TPT TP

Outro:
G|---------------------|
D|-------6-5-3---------|
A|-0-2-3---------------|
E|------------3-2-1-0~-|



| /  slide up
| \  slide down
| h  hammer-on
| p  pull-off
| ~  vibrato
| +  harmonic
| x  Mute note
===============================================================================
            
Hard to play? Try these video lessons and learn fast. | Correct




comments powered by Disqus
↑ Back to top | Tablatures and chords are parodies/interpretations of the original songs. You may use it for private study, scholarship, research or language learning purposes only