» » »

Brendans Death Song Tabs (ver.5)

Artists:  A B C D E F G H I J K L M N O P Q R S T U V W X Y Z # 

Brendans Death Song Tabs (ver.5)

Red Hot Chili Peppers
Rating:
0/5 (0 votes)

Hard to play? Try these video lessons and learn fast.
                (Intro)
e--0h2--0---------------------------------------------------------------]
B-------------1--3--1-------0h1--0--1--0--------------------------------]
G----------2-----------2------------------2--0--------------------------]
D--0--------------------------------------------0-----------------------]
A-------------3-------------3-------------------------2-2-2-2--(cont.)--]
E--------------------------------------3--------------3-3-3-3-----------]

e--0h2--0---------------------------------------------------------------]
B-------------1--3--1-------0h1--0--1--0--------------------------------]
G----------2-----------2------------------2--0-----2--------------------]
D--0--------------------------------------------0-----------------------]
A-------------3-------------3-------------------------2-2-2-2--(cont.)--]
E--------------------------------------3--------------3-3-3-3-----------]

I still can't find a tab that's exactly right, but this is what I came up with playing 
it by ear. Hope it's not too off, hahaa
            
Hard to play? Try these video lessons and learn fast. | Correct




comments powered by Disqus
↑ Back to top | Tablatures and chords are parodies/interpretations of the original songs. You may use it for private study, scholarship, research or language learning purposes only