» » »

Red Hot Chili Peppers, Brendans Death Song Tabs (ver.4)

Artists:  A B C D E F G H I J K L M N O P Q R S T U V W X Y Z # 

Brendans Death Song Tabs (ver.4)

Red Hot Chili Peppers Tabs
 Rating:
4/5 (4 votes)
Brendans Death Song lessons Tabs too difficult? Try these video lessons and learn fast
                (Intro)
Main intro:

Detailed plucking for a lot of it, follow the rhythms of the song for the end on the first line.



E---0h2p0----------------------------------------------------------------------|
B-------------1--3--1-0-----0h1-0--1--0----------------------------------------|
G----------2-----------------------------2-0-------~---------------------------|
D---0----------------------------------------0---------------------------------|
A-------------3~------------0~--------3------------2-2-2-2-2-2-2-2-------------|
E--------------------------------------------------3-3-3-3-3-3-3-3-------------|


E---0h2p0--------------------------------------------------------------------|
B-------------1--3--1-0-----0h1-0--1--0--------------------------------------|
G----------2-----------------------------2-0-2---4--------0--0---------------|
D---0------------------------------------------------------------------------|
A-------------3~------------0~--------3--------------------------------------|
E------------------------------------------------3--------3--3---------------|


The main chords for the song are Just G, C and Em. There's another electric part but i 
haven't figured that one out yet. This riff is repeated through a lot of the verses.
            
Submit corrections

comments powered by Disqus
↑ Back to top | Red Hot Chili Peppers Tabs for Brendans Death Song. Lyrics for acoustic guitar and electric guitar. Tablatures and chords are parodies/interpretations of the original songs. You may use it for private study, scholarship, research or language learning purposes only