» » »

Breaking The Girl Chords (ver.1)

Artists:  A B C D E F G H I J K L M N O P Q R S T U V W X Y Z # 

Breaking The Girl Chords (ver.1)

Red Hot Chili Peppers
Rating:
0/5 (0 votes)

Hard to play? Try these video lessons and learn fast.
                Red Hot Chili Peppers – Breaking The Girl


You need a capo on the fifth fret. 
I noticed there is another tab for this song and it has all the 
right chords but the sound is all in the wrong key. 
Heres the chord shapes in order (the strumming patterns are at the bottom)

Intro
E|---0----0----0----0---|  
B|---0----0----0----0---|                repeat the intro twice
G|---6----9----11---6---|   <----------- then verse one starts
D|---7----10---12---7---|           then repeat the intro 4 more times
A|---7----10---12---7---|             this will make the first verse
E|---0----0----0----0---|  

Chorus                                        End
E|----0----7----8----7-----------------------|----0--|
B|----0----8----0----8-----------------------|----0--|
G|----6----7----0----7----7----7----7----7---|----0--|
D|----7---------0---------6----6----6----6---|----7--|
A|----7-----------------7-7--0------7----7---|--8-8--|
E|--0----7----8----7--------------8----0-----|-------|

Bridge
E|---0----8----7----0---| 
B|---0----0----8----0---| 
G|---6----0----7----6---|   <----------- repeat this part twice
D|---7----0----0----7---|                this makes up the bridge
A|---7----7----0----7---| 
E|---0--7-8----7----0---| 

E|---0----7----8----7---|
B|---0----8----0----8---|
G|---6----7----0----7---|
D|---7----0----0----0---|
A|---7----0----7----0---|
E|---0----7----8----7---|

Strumming Pattern: (\/=down, /\=up)

\/  \/ /\ \/ /\ \/ \/ \/

© Nick Carson 2002
            
Hard to play? Try these video lessons and learn fast. | Correct




comments powered by Disqus
↑ Back to top | Tablatures and chords are parodies/interpretations of the original songs. You may use it for private study, scholarship, research or language learning purposes only