» » »

Red Hot Chili Peppers, Blood Sugar Sex Magik Bass tabs (ver.2)

Artists:  A B C D E F G H I J K L M N O P Q R S T U V W X Y Z # 

Blood Sugar Sex Magik Bass tabs (ver.2)

Red Hot Chili Peppers Tabs
 Rating:
4/5 (4 votes)
Blood Sugar Sex Magik lessons Tabs too difficult? Try these video lessons and learn fast
1
                Band:Red Hot Chili Peppers
album:BloodSugarSexMagik
bassist:almighty-flea!!!

Intro/verse                                       play x4
          bassfig.1                        end bassfig.1
|--------|-9-12-14/16-12/14-7/9----9-11-12/14-11/12-6/7-||-------|
|-drums--|-7-10-12/14-10/12-5/7----7--9-10/12--9/10-4/5-||-------|
|--------|----------------------------------------------||-------|
|--------|----------------------------------------------||-3/15\-|

Chorus
 bassfig.2                                   end bassfig.2 play 4 times
|----------------------------|----------------------------|
|----------------------------|----------------------------|
|---------7---5-7----55------|---------7---5-7----0---4-5-|
|-0-0-0-0---0----------765-3-|-0-0-0-0---0------3---0-----|

Bridge
                                          go to bassfig.1 x4,then play bass
|-------------------------|---------------|                        fig.2 x4
|-------------------------|---------------|
|-------------------------|---------------|
|-1--1--1--1--1--1--1--1--|-3--3--3--3--3-|

Interlude

|-------------------|------------------------|--------------------|
|-5-----------------|-7----------------7-----|-5------------------|
|-3--3---3------3-4-|-5---5----5h7-5-5---5h7-|-3--3---3-3-4-2-3-4-|
|------3---3--5-----|--------5---------------|------3-------------|

|-------------------------|-----------------|-------------------|
|-7-----------------7-----|-5---------------|-7-------------8---|
|-5-5-5-7-0-5h7-5-5---5-4-|-3-3---3-3---3-4-|-5-5-5-5-5-5-6-6-6-|
|-------------------------|-----3-----3-----|-------------------|

play chorus than play interlud w/slight variations.

end on an open E note.

thanks much,enjoy!!!
            
Submit corrections

comments powered by Disqus
↑ Back to top | Red Hot Chili Peppers Bass for Blood Sugar Sex Magik. Lyrics for acoustic guitar and electric guitar. 1 Tablatures and chords are parodies/interpretations of the original songs. You may use it for private study, scholarship, research or language learning purposes only