» » »

Red Hot Chili Peppers, Blood Sugar Sex Magik Tabs (ver.1)

Artists:  A B C D E F G H I J K L M N O P Q R S T U V W X Y Z # 

Blood Sugar Sex Magik Tabs (ver.1)

Red Hot Chili Peppers Tabs
 Rating:
4/5 (4 votes)
Blood Sugar Sex Magik lessons Tabs too difficult? Try these video lessons and learn fast
1
                STANDARD TUNING
^ = Slide

INTRO

E------------------------------------------------------------------------------------
B------------------------------------------------------------------------------------
G-9 -12-14-^-16-12-^-14-7-^9-9-9-9---9-11-12-^-14-11-^-12-6-^7-7-7-7-----
D-7--10-12---14-10---12-5--7-7-7-7---7--9--10--12--9---10-4--5-5-5-5-----
A------------------------------------------------------------------------------------
E-----------------------------------------------------------------------------------


The Bass Does All The Work On The Verse On Guitar Its Just
E---------------------------------
B---------------------------------
G----------------------------------
D----------------------------------
A-0-0-0-0-0-0-0-0-0-0-0-0-----
E----------------------------------


CHORUS
E-----------------------------------------------------------------------------
B-----------------------------------------------------9-7-9------------------
G--------------7--------------------------------------------------6-7-------
D----------------9-8-7--------------------------------------5-7-------------
A-------7-5-7---------------757-------4-5----------------------------------
E-0-0-0----------------000--------3-5-------0-0-0------------------------


Bridge
E------------------------------------------------I-------13-----------------------
B--------8----------------8-h-10-8---------------I-------13------12------------------
G-9-7-9---9-7-9-9-7-9-------------9-7-9-9----    I--10-- 13------12---------------
D------------------------------------------------I--10--x6----- -12----------------
A------------------------------------------------I-- 8-----------10--------------
E------------------------------------------------I--x4------------x5--------------
            
Submit corrections

comments powered by Disqus
↑ Back to top | Red Hot Chili Peppers Tabs for Blood Sugar Sex Magik. Lyrics for acoustic guitar and electric guitar. 1 Tablatures and chords are parodies/interpretations of the original songs. You may use it for private study, scholarship, research or language learning purposes only