» » »

Red Hot Chili Peppers, Bicycle Song Tabs (ver.1)

Artists:  A B C D E F G H I J K L M N O P Q R S T U V W X Y Z # 

Bicycle Song Tabs (ver.1)

Red Hot Chili Peppers Tabs
 Rating:
4/5 (4 votes)
Bicycle Song lessons Tabs too difficult? Try these video lessons and learn fast
1
                e-----------5-------      e--3-3-3-3--------3-3-3-3---------|
B--7-7-7-7--5---7---      B--3-3-3-3--7-7---3-3-3-3--7------|
G--7-7-7-7--6---7---      G--4-4-4-4--7-7---4-4-4-4--7--9-9-|
D--7-7-7-7--7---9--- (x2) D--5-5-5-5--9-9---5-5-5-5--9--9-9-|
A--5-5-5-5--7---9---      A--5-5-5-5--9-9---5-5-5-5--9--7-7-|
E-----------5---7---      E--3-3-3-3--7-7---3-3-3-3--7------|

The verse goes exactly like this, listen for it!

e--3-3-3-3--------------------------------|
B--3-3-3-3--7-----------------------------|           This part is that little fill
G--4-4-4-4--7--9-9   <--------------------| between the verse and pre-chorus
D--5-5-5-5--9--9-9        at around :34-|
A--5-5-5-5--9--7-7------------------------|
E--3-3-3-3--7-----------------------------|

e-----------------------------------------|
B-----5-------7-----------7-8-7-----------|
G-------5-------7-----9---------7---------|
D---5-------7-------9---9-----------------|
A-3-------5-------7-----------------------|
E-----------------------------------------|

e------------------5-----5-----5-----5-----|
B-----5-------7------3-----3-----3---------|
G-------5-------7------4-----4-----4-------|
D---5-------7------------------------------|
A-3-------5--------------------------------|
E------------------------------------------|

e-------------------10-10-10-10-10-10-8--8--8--8--8--8--8--8--8--8--8--8--|
B-12-12-12-12-12-12-10-10-10-10-10-10-8--8--8--8--8--8--8--8--8--8--8--8--|
G-12-12-12-12-12-12-11-11-11-11-11-11-9--9--9--9--9--9--9--9--9--9--9--9--|
D-12-12-12-12-12-12-12-12-12-12-12-12-10-10-10-10-10-10-10-10-10-10-10-10-|
A-10-10-10-10-10-10-12-12-12-12-12-12-10-10-10-10-10-10-10-10-10-10-10-10-|
E-------------------------------------------------------------------------|

e-------------------10-10-10-10-10-10-8--8--8--8--8--8--10-10-10-10-10-10-|
B-12-12-12-12-12-12-10-10-10-10-10-10-8--8--8--8--8--8--8--8--8--8--8--8--|
G-12-12-12-12-12-12-11-11-11-11-11-11-9--9--9--9--9--9--9--9--9--9--9--9--|
D-12-12-12-12-12-12-12-12-12-12-12-12-10-10-10-10-10-10-10-10-10-10-10-10-|
A-10-10-10-10-10-10-12-12-12-12-12-12-10-10-10-10-10-10-------------------|
E-------------------------------------------------------------------------|

e-------------------10-10-10-10-10-10-8--8--8--8--8--8--8--8--8--8--8--8--|
B-12-12-12-12-12-12-10-10-10-10-10-10-8--8--8--8--8--8--8--8--8--8--8--8--|
G-12-12-12-12-12-12-11-11-11-11-11-11-9--9--9--9--9--9--9--9--9--9--9--9--|
D-12-12-12-12-12-12-12-12-12-12-12-12-10-10-10-10-10-10-10-10-10-10-10-10-|
A-10-10-10-10-10-10-12-12-12-12-12-12-10-10-10-10-10-10-10-10-10-10-10-10-|
E-------------------------------------------------------------------------|

e-------------------10-10-10-10-10-10-8--8--|
B-12-12-12-12-12-12-10-10-10-10-10-10-8--8--|
G-12-12-12-12-12-12-11-11-11-11-11-11-9--9--|
D-12-12-12-12-12-12-12-12-12-12-12-12-10-10-|
A-10-10-10-10-10-10-12-12-12-12-12-12-10-10-|
E-------------------------------------------|

Solo

e-------------------------------------------------------|
B-------------------------------------------------------|
G--11-12-11-----------------11-12-11--------------------|
D------------14-14-12-12--------------14-14-12-12-14----|
A-------------------------------------------------------|
E-------------------------------------------------------|

e------------------------------------------------|
B------------------------------------------------|
G---------11-------------------------7h9---------|
D-----12------14--12-12--14-------9--------------|
A--10--------------------------10---------7------|
E------------------------------------------------|

Repeat the solo, expept make replace the last note with this:

e--7-----------------10-10-9--7--|
B--8-----------------11-11-10-8--|
G--9-----------------12-12-11-9--|
D--------------------------------|
A--------------------------------|
E--------------------------------|


Thats the song, listen to it closely to get it right!
            
Submit corrections

comments powered by Disqus
↑ Back to top | Red Hot Chili Peppers Tabs for Bicycle Song. Lyrics for acoustic guitar and electric guitar. 1 Tablatures and chords are parodies/interpretations of the original songs. You may use it for private study, scholarship, research or language learning purposes only