» » »

Red Hot Chili Peppers, Annie Wants A Baby Tabs (ver.5)

Artists:  A B C D E F G H I J K L M N O P Q R S T U V W X Y Z # 

Annie Wants A Baby Tabs (ver.5)

Red Hot Chili Peppers Tabs
Rating:
5/5 (2 votes)
Annie Wants A Baby lessons Tabs too difficult? Try these video lessons and learn fast
                Verse

e|----------------------------------------------------------------------|
b|6~-8s10-------6~--8s10------------------------------------------------|
g|--------7~--5----------7~--5-(5)--5---3-----------5---3---------------|
D|--------------------------------7---7-3h5-3~----7---7-3h5-3-3/5\3-----|
A|----------------------------------------------------------------------|
E|----------------------------------------------------------------------|

e|----------------------------------------------------------------------|
b|6~-8s10-------6~--8s10------------------------------------------------|
g|--------7~--5----------7~--5-(5)--5---3-----------5---3---------------|
D|--------------------------------7---7-3h5-3~----7---7-3h5-3-3/5\3-----|
A|----------------------------------------------------------------------|
E|----------------------------------------------------------------------|


Chorus

e|------1-----1-----1-----3----3---3------------------------------------|
b|----3-----3-----3-----5----5---5--------8-----8---8-----8-----8---8---|
g|--3-----3-----------5----5------------8-----8---8-----8-----8---8-----|
D|------------------------------------8-----8---------8-----8-----------|
A|----------------------------------------------------------------------|
E|----------------------------------------------------------------------|

e|------1-----1-----1-----3----3---3------------------------------------|
b|----3-----3-----3-----5----5---5----8-8-8-8-8-8-8-8-7-7-7-7-7-7-7-7---|
g|--3-----3-----------5----5----------8-8-8-8-8-8-8-8-7-7-7-7-7-7-7-7---|
D|------------------------------------8-8-8-8-8-8-8-8-7-7-7-7-7-7-7-7---|
A|----------------------------------------------------------------------|
E|----------------------------------------------------------------------|

Dm, Gm, Eb, D, Dm
Dm, Gm, Eb, D, Dm        (first 2 bars are picked. They are mostly picked
                          just down and up, the last 2 bars are strummed)
Dm, Gm, Eb, D, Dm
Dm, Gm, Eb, C#, B, Bb


Bridge/solo 1 (can't work this out yet i might try again another time, any help would be 
apreciated though :D)


Verse

e|----------------------------------------------------------------------|
b|6~-8s10-------6~--8s10------------------------------------------------|
g|--------7~--5----------7~--5-(5)--5---3-----------5---3---------------|
D|--------------------------------7---7-3h5-3~----7---7-3h5-3-3/5\3-----|
A|----------------------------------------------------------------------|
E|----------------------------------------------------------------------|

e|--------------12121212-----------------|
b|--5-8s10------12121212--strum how many-|
g|---------9~---9-9-9-9---times you want-|
D|---------------------------------------|
A|---------------------------------------|
E|---------------------------------------|

e|----------------------------------------------------------------------|
b|6~-8s10-------6~--8s10------------------------------------------------|
g|--------7~--5----------7~--5-(5)--5---3-----------5---3---------------|
D|--------------------------------7---7-3h5-3~----7---7-3h5-3-3/5\3-----|
A|----------------------------------------------------------------------|
E|----------------------------------------------------------------------|


Chorus

Dm, Gm, Eb, D, Dm
Dm, Gm, Eb, D, Dm        (these are all strummed chords).

Dm, Gm, Eb, D, Dm
Dm, Gm, Eb, C#, B, Bb


Bridge/solo 2 (again im too lazy to work it out yet. sorry :P)


Outro

e|------1-----1-----1-----3----3---3------------|
b|----3-----3-----3-----5----5---5-----------8--|
g|--3-----3-----------5----5-------------8------|
D|------------------------------------8---------|
A|----------------------------------------------|
E|----------------------------------------------|
            

comments powered by Disqus
↑ Back to top | Red Hot Chili Peppers Tabs for Annie Wants A Baby. Lyrics for acoustic guitar and electric guitar. Tablatures and chords are parodies/interpretations of the original songs. You may use it for private study, scholarship, research or language learning purposes only