» » »

Red Hot Chili Peppers, Annie Wants A Baby Tabs (ver.3)

Artists:  A B C D E F G H I J K L M N O P Q R S T U V W X Y Z # 

Annie Wants A Baby Tabs (ver.3)

Red Hot Chili Peppers Tabs
 Rating:
3.6/5 (7 votes)
Annie Wants A Baby lessons Tabs too difficult? Try these video lessons and learn fast
1
                

Tuning: Standard EADGBe

Play order:
Verse A
Verse B
Verse A
Verse B
Pre-Chorus
Chorus A
Chorus B (1 pass/no repeat)
Fill 1
Verse A
Verse B
Fill 2
Verse A
Verse B
Fill 3 (2nd guitar plays Pre-Chorus if available)
Chorus B (2 passes/1 repeat)
Jam
Ending


Verse A
e|--------------------------------|| Pull-offs are optional,
B|-6--8b10--------6-8b10----------|| varied by verse (listen
G|---------7-(p5)--------7-(p5p0)-|| to track to find where 
D|--------------------------------|| they occur)
A|--------------------------------||
E|--------------------------------||


Verse B
e|------------------------------------------||
B|------------------------------------------||
G|---5----------------------5---------------||
D|-7---7--------------(5)-7---7-------------||
A|-------8b10--8--(8-8)---------8b10-8b10r8-||
E|------------------------------------------||
                  ^notes^ optional, only before Pre-Chorus

                                     __________________________________
Pre-Chorus                          |1                                 |
e|------10----10--10----13----13--13|----10----10--10----10----10--10--|
B|o---11----11--------13----13------|--11----11--------11----11-------o|
G|--12----12----12--14----14----14--|12----12----12--12----12----12----|
D|----------------------------------|----------------------------------|
A|o---------------------------------|---------------------------------o|
E|----------------------------------|----------------------------------|

  _______________________________________________
 |2                                              ||
e|-----11-11-11-11-11-11-10-10-10-10-10-10-10-10-||
B|-----11-11-11-11-11-11-10-10-10-10-10-10-10-10-||
G|-12--12-12-12-12-12-12-11-11-11-11-11-11-11-11-||
D|-----------------------------------------------||
A|-----------------------------------------------||
E|-----------------------------------------------||


Chorus A (only in 1st chorus)
e|---------------------------------------------------|
B|---------10---------------11--------------11-------|
G|-10----10--10--10-12----12--12----12----12--12-----|
D|-----12---------------12------12------13------13---|
A|---12--------12-----10----------10--13----------13-|
E|-10---------------10--------------11---------------|
   Dm               Gm              Eb


e|----------------------------------------------------------|
B|-------7-6-----6---------------------------------11-------|
G|-----7-----------10----10-12b14r12-10-12-------12--12-----|
D|---7-------7---------12------------------12--12------12---|
A|-9-----------8-----12----------------------10----------10-|
E|-----------------10---------------------------------------|
   D3      F7      Dm                      Gm


e|----------------------------------||
B|---------11-------------7-6-----6-||
G|-12----12--12---------7-----------||
D|-----13------13-----7-------7-----||
A|---13----------13-9-----------8---||
E|-11-------------------------------||
   Eb               D3      F7


Chorus B 
e|-------------------------------------------------------| *Starred chords
B|o-10*-11*-11*-------7-6-----6-10-----------------------| are strummed 
G|--10*-12*-12*-----7-----------10-----10-12b14r12-10-12-| multiple times
D|--12*-12*-13*---7-------7-----12---12------------------| to rhythm
A|o-12*-10*-13*-9-----------8---12-12--------------------|
E|--10*-10*-11*-----------------10-----------------------|
    Dm* Gm* Eb* D3      F7      Dm (single strum)


                                           End of Chorus
e|----------------------------------------||------||
B|---------11--------11*-------7-6-----6-o||--6---||
G|-------12--12------12*-----7------------||--7---||
D|-12--12------12----13*---7-------7------||--8---||
A|---10----------10--13*-9-----------8---o||--8---||
E|-------------------11*------------------||--6---||
   Gm                Eb* D3      F7           Bm


Fill 1 (after 1st chorus)
e|------------------------------------------------------||
B|-10--10----10--13-10----------------------------------||
G|-------10-----------10-10-(9b)10r9-b10r9p7-77---------||
D|---------------------------------------------777-10-7-||
A|------------------------------------------------------||
E|------------------------------------------------------||


Fill 2 (middle of verse 2)
e|------------13-13-13-13-13-13-13-||
B|-5--8b10-6--13-13-13-13-13-13-13-||
G|---------------------------------||
D|---------------------------------||
A|---------------------------------||
E|---------------------------------||

                                 ___________________
Fill 3 (over 2nd pre-chorus)    |1                  |
e|--10~--13-13~--15b16r15-13-15-|-10~--22b23r22-----|
B|o-11~--15-13~-----------------|-11~--23b24r23----o|
G|--12~--14-14~-----------------|-12~-----------24--|
D|------------------------------|-------------------|
A|o-----------------------------|------------------o|
E|------------------------------|-------------------|

  ________________________________________________
 |2                                               ||
e|------11-11-11-11-11-11-10-10-10-10-10-10-10-10-||
B|------11-11-11-11-11-11-10-10-10-10-10-10-10-10-||
G|-12---12-12-12-12-12-12-11-11-11-11-11-11-11-11-||
D|------------------------------------------------||
A|------------------------------------------------||
E|------------------------------------------------||


Jam
e|--------------------------------------------------|
B|--------------------------------------------------|
G|--------------------------------------------------|
D|--------------------------------------------------|
A|-5-5-7b8r7--5b7r5---------------------5b7r5-5b7r5-|
E|------------------5-6-666-6b8r6-5b6r5-------------|


e|-------------------------------------------|
B|-------------------------------------------|
G|-------------------------------------------|
D|----------------------7b10r7---------------|
A|-8b10r8-8b10r8-8-8b10--------(8b)10r8b10r8-|
E|-------------------------------------------|
                                            

e|-------------------------------------------------||
B|-------------------------------------------------||
G|-----------------------------[He throws in an ]--||
D|-----------------------------[ascending scale ]--||
A|--------------------------5--[in Dm/F here and]--||
E|-(8b)10r8b10r8b101010-8-8----[hard to decipher]--||
  Rapid bent 10s ^ ^ ^


Ending
e|-----10----10--10----13----13--13----10-||
B|---11----11--------13----13--------11---||
G|-12----12----12--14----14----14--12-----||
D|----------------------------------------||
A|----------------------------------------||
E|----------------------------------------||


Legend
 * -See text to side
 b -Bend string
 r -Return from bend
 ~ -Let note ring
(n)-Optional or unpicked note, varies
            
Submit corrections

comments powered by Disqus
↑ Back to top | Red Hot Chili Peppers Tabs for Annie Wants A Baby. Lyrics for acoustic guitar and electric guitar. 1 Tablatures and chords are parodies/interpretations of the original songs. You may use it for private study, scholarship, research or language learning purposes only