» » »

Aeroplane Bass tabs (ver.2)

Artists:  A B C D E F G H I J K L M N O P Q R S T U V W X Y Z # 

Aeroplane Bass tabs (ver.2)

Red Hot Chili Peppers
Rating:
3/5 (11 votes)

Hard to play? Try these video lessons and learn fast.
                ----------------------------------------------------------------------------
	       Aeroplane - Red hot chili peppers
----------------------------------------------------------------------------


Tuning:standard
Martins version is pretty good, i just want to redo or give an alternate
chorus interlude and solo, they arent quite right to me. May as well add
the full verses too. Be nice if someone rated it

1st chorus after the intro
G|--------------------------------------------------------------------------|
D|--------------------------------------------------------------------------|
A|-/10~~-0-1-/3~~------/10~~-0-1-33-355-566-688-8/10~~-0-1-/3~~-------------|
E|----------------0-1-------------------------------------------0-1---------|

G|---------------------------------------------------------------------------|
D|------------------------------------3-3h5-3-------------------------------5|
A|---0-1-3/5-3----------0-1-3-3/5-3-5---------5----0-1-3-3/5-3-5-6--6h8p6-86-|
E|-3-----------0-1----3--------------------------3---------------------------|

1st verse
G|------------7-7-----5-5------------------------7-7-----5-5-------5---|
D|---5-5-----------------------3-5-5----5-5----------------------5-----|
A|-----------5-x--4-3x-x--5-6-------------------5-x--4-3x-x--5h7x-x----|
E|-3x-x--5-6------------------x-x-x---3x-x--5-6------------------------|
   sspsp s s spsp s sspsp s s spspsp  sspsp s s spsp s sspsp s  spsp

G|------------7-7-----5--------------------------7-7-----5-5-----8---7-|
D|---5-5--------------------5-3---------5-5----------------------------|
A|-----------5-x--4-3x-x5h7x----3\1-------------5-x--4-3x-x--5h6---5---|
E|-3x-x--5-6--------------------------3x-x--5-6------------------------|
   sspsp s s spsp s sspss  sp p s     sspsp s s spsp s sspsp s   p s p

G|------------7-7-----5-5------------------------7-7-----5-------------|
D|---5-5-----------------------3-5-5----5-5----------------------------|
A|-----------5-x--4-3x-x--5-6-------------------5-x--4-3x-x----x-3-1h3-|
E|-3x-x--5-6------------------x-x-x---3x-x--5-6-------------1h3--------|
   sspsp s s spsp s sspsp s s spspsp  sspsp s s spsp s ssps s  s s s

G|------------3-3-----5-5------------------------7-7-----5-5-----------|
D|---5-5-----------------------3-5-5----5-5----------------------------|
A|-------0-1-1-x--2-3x-x--5-6-------------------5-x--4-3x-x--5-6/7-8---|
E|-3x-x-----------------------x-x-x---3x-x--5-6------------------------|
   sspsp s s spsp s sspsp s s spspsp  sspsp s s spsp s sspsp s s   s

2nd chorus
G|--------------------------------------------------------------------------|
D|--------------------------------------------------------------------------|
A|-/10~~-0-1-/3~~-----/10~~-0-1-33-355-566-6/18brb---/10~~-0-1-/3~~---------|
E|----------------0-1-----------------------------------------------0-1-----|

G|--------------------------------------------------------------------------|
D|----7-8-10/12-10-----------------------3-3h5-3-------7-8-10-10/12-10-12---|
A|-10----------------------0-1-3-3/5-3-5---------5-/10----------------------|
E|-----------------0-1---3--------------------------------------------------|

G|-10-10h12-12-12-10h12-12-12--|
D|-----------------------------|
A|-----------------------------|
E|-----------------------------|

G|------------7-7-----5-5------------------------7-7-----5----------------|
D|---5-5-----------------------3-5-5----5-5-------------------------------|
A|-----------5-x--4-3x-x--5-6-------------------5-x--4-3x------1h3-1------|
E|-3x-x--5-6------------------x-x-x---3x-x--5-6-----------x1h3------1h3p1-|
   sspsp s s spsp s sspsp s s spspsp  sspsp s s spsp s sspss   s   ss

G|------------7-7-----5-5------------------------7-7-----5-x----10-9----|
D|---5-5------------------------3--5----5-5--------------------------10-|
A|-----------5-x--4-3x-x--5-6-------------------5-x--4-3x---7h8x--------|
E|-3x-x--5-6-------------------x--x---3x-x--5-6-------------------------|
   sspsp s s spsp s sspsp s s  sp sp  sspsp s s spsp s ssp ps  sp  p p

G|------------7-7-----5-5------------------------7-7-----5-------------|
D|---5-5-----------------------3-5-5----5-5-------------------3-5p3----|
A|-----------5-x--4-3x-x--5-6-------------------5-x--4-3x-x3h5------5--|
E|-3x-x--5-6------------------x-x-x---3x-x--5-6------------------------|
   sspsp s s spsp s sspsp s s spspsp  sspsp s s spsp s sspss  p p   s

G|------------3-3-----5-5------5-7-8-------------3-3-----5-5-----------|
D|---5-5---------------------5----------5-5----------------------------|
A|-------0-1-1-x--2-3x-x-5h6--x-x-x---------0-1-1-x--2-3x-x--5-6/7-8---|
E|-3x-x-------------------------------3x-x-----------------------------|
   sspsp s s spsp s sspsps   pspspsp  sspsp s s spsp s sspsp s s   s


3rd chorus
G|--------------------------------------------------------------------------|
D|---------------------------------10--13-12--------------------------------|
A|/10~~-0-1-/3~~-----/10~~-0-1-3/10--10-----10-/10~~-0-1-/3~~---------0-1---|
E|---------------0-1------------------------------------------0-1---3-------|

                 interlude
G|--------------[------------------------------------------------------10---|
D|--------------[-----------------------------------------------------------|
A|-3/5-3--------[--6-6---8-8---10-10---8-6-6---8-8---10-10-----6-6---8------|
E|--------0-1---[-----------------------------------------------------------|

G|---------10----12-0-12-10-----------8----10--------10----12-10----12-10----|
D|------12----12-------------12-------------------12----12-------12-------12-|
A|-10----------------------------6-6----8-----10-----------------------------|
E|---------------------------------------------------------------------------|

G|---------------------10----12--15-12--------------------------------------|
D|----------10------12----12-----------12-----------------------------------|
A|-6-6---8-----10---------------------------6-6--8-8--10--10--10------------|
E|--------------------------------------------------------------------------|

4th chorus
G|--------------------------------------------------------------------------|
D|--------------------------------------------------------------------------|
A|-/10~~-0-1-/3~~-----/10~~-0-1-3-/6~~\/12~~\/17~~~~-/10-0-1-/3~-------0-1--|
E|----------------0-1--------------------------------------------0-1-3------|

G|------------|
D|------------|
A|-3/5-3------|
E|-------0-1--|

solo
G|---0-3-4-------------------------------------------------------------------|
D|---------3-0-5-3-----------------------------------------------------x-x---|
A|-----------------5-3----1---3-1---------------------------3-333-1-xxx-x----|
E|3-3-------------------3---3-----3--1-0-2--3-333-1-1-3/15\------------------|

G|----------3-----------------------------0-34----------------5-----------|
D|----5--3----------------------------0-5------5-0-3----------------------|
A|-------------4-3--1--3-1----------------------------0-4-1-3----5/17\----|
E|--3----------------------3--1-0-2--3------------------------------------|

and for the verses obviously s is for slap and p for pop, rest is played
with fingers
| /  slide up
| \  slide down
| h  hammer-on
| p  pull-off
| ~  vibrato
| +  harmonic
| x  Mute note
===============================================================================
            
Hard to play? Try these video lessons and learn fast. | Correct




comments powered by Disqus
↑ Back to top | Tablatures and chords are parodies/interpretations of the original songs. You may use it for private study, scholarship, research or language learning purposes only