» » »

21st Century Bass tabs (ver.3)

Artists:  A B C D E F G H I J K L M N O P Q R S T U V W X Y Z # 

21st Century Bass tabs (ver.3)

Red Hot Chili Peppers
Rating:
4/5 (6 votes)

Hard to play? Try these video lessons and learn fast.
                this took a while to tab so please rate.

Intro
G|------------------------------------------------------------------|
D|-0-0-0-0-0-0-230-------------230-------------230-----32------32---|
A|-----------------1-1-1-1-1-1-----0-0-0-0-0-0-----------3-3-3---3--|
E|-------------------------------------------------3-3--------------|

G|---------------------------------------------------------32020-0--|
D|-0-0-0-0-0-0-320-------------230-------------230-----32-------3---|
A|-----------------1-1-1-1-1-1-----0-0-0-0-0-0-----------3----------|
E|-------------------------------------------------3-3--------------|

Verse
G|------------------------------------------------------------------|
D|-0-0-0-0-0-0-230-------------230-------------230-----32------32---|
A|-----------------1-1-1-1-1-1-----0-0-0-0-0-0-----------3-3-3---3--|
E|-------------------------------------------------3-3--------------|

G|------------------------------------------------------------------|
D|-0-0-0-0-0-0-230-------------230-------------230-----32------325--|
A|-----------------1-1-1-1-1-1-----0-0-0-0-0-0-----------3-3-3------|
E|-------------------------------------------------3-3--------------|

G|------------------------------------------------------------------|
D|-0-0-0-0-0-0-320-------------230-------------230-----32----3232---|
A|-----------------1-1-1-1-1-1-----0-0-0-0-0-0-----------3-3-----3--|
E|-------------------------------------------------3-3--------------|

G|------------------------------------------------------------------|
D|-0-0-0-0-0-0-230-------------230-------------230-----32----32325--|
A|-----------------1-1-1-1-1-1-----0-0-0-0-0-0-----------3-3--------|
E|-------------------------------------------------3-3--------------|

Chorus
G|--------33333333-------00222220---|
D|-00000-----------33333---------3--|
A|----------------------------------| x3
E|----------------------------------|

G|--------33333333-00000-00000-0-00000---------|
D|-00000---------------------------------------|
A|-------------------------------------11111-1-|
E|---------------------------------------------|

Verse 2
G|-----------------------------------------------------------5-------|
D|-0-0-0-0-0-0-230-------------230-------------230-----32--5/7--753--|
A|-----------------1-1-1-1-1-1-----0-0-0-0-0-0-----------3-----------|
E|-------------------------------------------------3-3---------------|

G|------------------------------------------------------------------|
D|-0-0-0-0-0-0-230-------------230-------------230-----32------32---|
A|-----------------1-1-1-1-1-1-----0-0-0-0-0-0-----------3-3-3---3--|
E|-------------------------------------------------3-3--------------|

G|------------------------------------------------------------------|
D|-0-0-0-0-0-0-320-------------230-------------230-----32----32325--|
A|-----------------1-1-1-1-1-1-----0-0-0-0-0-0-----------3-3--------|
E|-------------------------------------------------3-3--------------|

G|------------------------------------------------------------------|
D|-0-0-0-0-0-0-230-------------230-------------230-----32----3232---|
A|-----------------1-1-1-1-1-1-----0-0-0-0-0-0-----------3-3-----3--| x2
E|-------------------------------------------------3-3--------------|

Chorus

Bridge
G|-14141414--1717--14141414--1917--14141214--1717--14141714--1212---|
D|------------------------------------------------------------------|
A|------------------------------------------------------------------| x2
E|------------------------------------------------------------------|

G|-14141414--1717--14141414--1917--14141214--1717--14141714171412---|
D|------------------------------------------------------------------|
A|------------------------------------------------------------------| 
E|------------------------------------------------------------------|

Verse 3
G|-----------------------------------------------------------5------|
D|-0-0-0-0-0-0-230-------------230-------------230-----32-5/7--753--|
A|-----------------1-1-1-1-1-1-----0-0-0-0-0-0-----------3----------|
E|-------------------------------------------------3-3--------------|

G|------------------------------------------------------------------|
D|-0-0-0-0-0-0-230-------------230-------------230-----32----32325--|
A|-----------------1-1-1-1-1-1-----0-0-0-0-0-0-----------3-3--------|
E|-------------------------------------------------3-3--------------|

G|-------------------3---3---3-------2---2---2---------------5------|
D|-0-0-0-0-0-0-230-------------230-------------230---5---5----------|
A|-----------------1---1---1-------0---0---0---------------3---3/5--|
E|-------------------------------------------------3---3------------|

G|------------------------------------------------------------------|
D|-0-0-0-0-0-0-230-------------230-------------230-----32----32325--|
A|-----------------1-1-1-1-1-1-----0-0-0-0-0-0-----------3-3--------|
E|-------------------------------------------------3-3--------------|

Chorus 2 play twice
G|--------33333333-------00222220---|
D|-00000-----------33333---------3--|
A|----------------------------------| x3
E|----------------------------------|

G|--------33333333---------55555-5--|
D|-00000-----------33333------------|
A|----------------------------------| 
E|----------------------------------|

Guitar Solo
G|--------33333333-------00222220---------33333333----------5—7-5---|
D|-00000-----------33333---------3-00000-----------33333-5h7-7---7--|
A|------------------------------------------------------------------|
E|------------------------------------------------------------------|

G|--------33333333-------002-0------------33333333------------------|
D|-00000-----------33333-------033-00000-----------3--3--3-----3--2-|
A|------------------------------------------------------------------|
E|----------------------------------------------------------1-------|

G|------0003-33-20---------22--20-------0003-33-20------------------|
D|-0-00------------3-33-333------3-0-00------------3-33-33----3332--|
A|------------------------------------------------------------------|
E|---------------------------------------------------------11-------|

G|------0003-33-20----------535-75------0003-33-20--------2-0-------|
D|-0-00------------3-33--333-------0-00------------3-33-3-----3--0~-|
A|------------------------------------------------------------------|
E|------------------------------------------------------------------|
            
Hard to play? Try these video lessons and learn fast. | Correct




comments powered by Disqus
↑ Back to top | Tablatures and chords are parodies/interpretations of the original songs. You may use it for private study, scholarship, research or language learning purposes only