» » »

Meant To Be Tabs (ver.3)

Artists:  A B C D E F G H I J K L M N O P Q R S T U V W X Y Z # 

Meant To Be Tabs (ver.3)

Rebelution
Rating:
0/5 (0 votes)

Tabs too difficult? Try these video lessons and learn fast.
                -------------------------------------------------------------------------------
                             Meant to Be (Acoustic) - Rebelution
-------------------------------------------------------------------------------

Tuning: Standard, Capo on 6th fret

I learned this song by ear and I'm pretty sure it's 99.9% correct. This is for all 
the Rebelution fans :) enjoy!!


   (Intro pt. 1)
e|---------------------------------------------------------------------------|
B|--------0-------------------------------------0----------------------------|
G|-----0-----0--------0--------0-------------------0--------0-------(x2)-----|
D|--2--------------0--------0-----0--------0h2-----------0-------------------|
A|--------------2--------3-----------3--2-------------2--------3-------------|
E|---------------------------------------------------------------------------|
   (Intro pt. 2)
e|---------------------------------------------------------------------------|
B|-------0--------------3-----1--0-------------0-----------------------------|
G|--0h2-----0--------0-----0--------2-----0h2-----0--------0-------(x2)------|
D|----------------0-------------------------------------0--------------------|
A|-------------2--------3--------------3-------------2--------3--------------|
E|-------0-------------------------------------0-----------------------------|
   (Verses)
e|---------------------------------------------------------------------------|
B|--------0-------------------------------------0----------------------------|
G|-----0-----0--------0--------0-------------------0--------0-------(x4)-----|
D|--2--------------0--------0-----0--------0h2-----------0-------------------|
A|--------------2--------3-----------3--2-------------2--------3-------------|
E|---------------------------------------------------------------------------|

   (Pre-chorus)
e|---------------------------------------------------------------------------|
B|--1-----------0--0h1-----1h3--1-----0--0--------------0-----0h1--0---------|
G|--0-----0-----0--0-------0-------------------------2--------0----0-----2---|
D|-----2----------------0----------0-----------0----------------------0------|
A|--0--------0--2--3------------------------2--------------------------------|
E|---------------------------------------0--------0--2--3--3-----------------|

e|---------------------------------------------------------------------------|
B|--------1-----0--1--1h3--1-----0-------------------------------------------|
G|--0-----------0--0--0----------0-------------------------------------------|
D|-----2----------------------0-----4--/2--0---------------------------------|
A|-----------0--2--3-(3)------------5--/3--3---------------------------------|
E|-(0)-----------------------------------------------------------------------|
   (Chorus)
e|---------------------------------------------------------------------------|
B|-----0-----0-----1--1-----0-----0-----1--------1---------------------------|
G|-----0-----0-----0--0-----0-----0-----0--------0----(x4)-------------------|
D|---------------------------------------------------------------------------|
A|-----------2--3--------------------0-----0-----0---------------------------|
E|--3-----3--------------0-----0--3-----------3------------------------------|


************************************

| /   slide up
| \   slide down
| h   hammer-on
| p   pull-off
| ~   vibrato
| +   harmonic
| x   Mute note
| b   Bend
| pb  Pre-bend
| br  Bend release
| pbr Pre-bend release
| brb Bend release bend

************************************
            
Tabs too difficult? Try these video lessons and learn fast.




comments powered by Disqus
↑ Back to top | Tablatures and chords are parodies/interpretations of the original songs. You may use it for private study, scholarship, research or language learning purposes only