>
 >
Heart Like A Lion

Heart Like A Lion Chords

Rebelution - Heart Like A Lion chords, tabs, tablatures, lyrics

Guitar lessons | Add/correct | Request | Top 50 tabs Artists:  A B C D E F G H I J K L M N O P Q R S T U V W X Y Z 0-9

Heart Like A Lion Chords – Rebelution

CD, Sheet music, Poster

Do you like Heart Like A Lion? Share with your friends now
Bass TabsChordsTabsUkulele
-------------------------------------------------------------------------------
-------------------------------------------------------------------------------


Tuning: Standard

      Em   D    Am   Bm   C
e|----7----5----5----7----8-------------------------|
B|----8----7----5----7----8-------------------------|
G|----9----7----5----7----9-------------------------|
D|----9----7----7----9----10------------------------|
A|----7----5----7----9----10------------------------|
E|--------------5----7----8-------------------------|

Intro (0:04)
e|--------------------------------------------------|
B|--------------------------------------------------|
G|------------------------4-4--5-5--7-7--9\---------|
D|---------4-4--5-5--7-7----------------------------| X2
A|----7-7-------------------------------------------|
E|--------------------------------------------------|

Main Riff (0:13)
e|--------------------------------------------------|
B|--------------------------------------------------|
G|--------------------------------------------------|
D|--------------------------------------------------|
A|---------------5------5----------7----------7-----|
E|----0-0h3--5/7----5h7----5-5-7h8----5-5-7h8-------|

e|--------------------------------------------------|
B|--------------------------------------------------|
G|--------------------------------------------------|
D|--------------------------------------------------| X2
A|---------------5------5------7-7-----7-7----------|
E|----0-0h3--5/7----5h7----5-5-----5-5--------------|

Em             D    Am 
A heart like a lion, A burning like fire
Em      D              Am
Waiting just to be set free
Em             A    Am
A heart like a lion, A burning like fire
Em        D           Am
How can I bear captivity

Em                  D        Am   Em          D               Am 
Well Some they tell me I'm a fool, a fool who walks this road alone
Em  D               Am      Em             D                    Am 
So afraid of making changes, remember that nothing is carved in stone
Em         D             Am       Em           D                  Am
Oh tell me why we are so afraid of the secrets locked with in our souls
Em       D                Am     Em        D          Am
Cuz everything that we're made of is dying just to be exposed

                   Em                            D
So don't turn your back on yourself, cuz there's nowhere to run
        Am                             
And you know your life in a practice run
Em           D               Am
It's time to wake up your mind
   Em                  D             Am
Or maybe tomorrow will never come or maybe it will but by then it's too late
Em              D              Am
There's nothing left to do but cry
            Bm                     C               Bm                     C
And now you cry but you donít know why and now you cry but you donít know why

Em             D     Am 
A heart like a lion, A burning like fire
Em      D              Am
Waiting just to be set free
Em             A     Am
A heart like a lion, A burning like fire
Em        D           Am
How can I bear captivity

                    Em                D       Am
So what you want to be now, well it's time to realize
                    Em                D                      Am
That everything you need now has been right in front of your eyes
Em                           D                    Am                  
Don't point your fingers and blame, remember it's never too late to change
Em                           D                  Am
Don't point your fingers and blame, remember it will be okay

                   Em                            D
So don't turn your back on yourself, cuz there's nowhere to run
        Am                             
And you know your life in a practice run
Em           D               Am
It's time to wake up your mind
   Em                  D             Am
Or maybe tomorrow will never come or maybe it will but by then it's too late
Em              D              Am
There's nothing left to do but cry
            Bm                     C               Bm                     C
And now you cry but you donít know why and now you cry but you donít know why

               Bm
You better get up, You better get out
               C
You better get up, And turn your life around
               Bm
You only live once, You better act now
               C                        D
Cuz you never know when it's gonna come back around

Em             D     Am 
A heart like a lion, A burning like fire
Em      D              Am
Waiting just to be set free
Em             A     Am
A heart like a lion, A burning like fire
Em        D           Am
How can I bear captivity

Outro (5:06)
e|--------------------------------------------------|
B|--------8--------7--------------------------------|
G|--------------------------5--------5--------------|
D|------9--------7----------------------------------| x4
A|----7--------5----------7--------7----------------|
E|----------------------5--------5------------------|

| PM Palm Mule
| /  Slide up
| \  Slide down
| b  Bend
| h  Hammer-on
| p  Pull-off
| ~  Vibrato
| +  Harmonic
| x  Mute note
===============================================================================





Comments


Popular Rebelution tabs & chords
Change The System Bass Tabs
Good Vibes Bass Tabs
Ordinary Girl Bass Tabs
Closer I Get Tabs
Feeling Alright Intro 1 Tabs
Other Side Tabs
Outta Control Tabs
Outta Control Intro Tabs
Safe And Sound 2 Tabs
Honeypot Ukulele


Song lyrics



↑ Back to top | Tablatures and chords are parodies/interpretations of the original songs. You may use it for private study, scholarship, research or language learning purposes only
© 2014 AZChords.com Contact us | Privacy policy | DMCA | Add/correct tabs | Request tabs | Top 50 tabs