» » »

Rebecca Black, Friday Bass tabs (ver.1)

Artists:  A B C D E F G H I J K L M N O P Q R S T U V W X Y Z # 

Friday Bass tabs (ver.1)

Rebecca Black Tabs
 Rating:
4.2/5 (5 votes)
Friday lessons Tabs too difficult? Try these video lessons and learn fast
                -----------------------------------------|
-----------------------------------------|
Actually a pretty fun song to play
on bass! Enjoy!
-----------------------------------------|
-----------------------------------------|

Verses:

G|-------------------------------|
D|-------------------------------|
A|----9-------6-------2-------4--|
E|-777-7---444-4---000-0---222-2-|

"Kickin in the front seat...":

G|-------------------------------------8h9p8------8h9p8-|
D|-------------------------------------------11-9-------|
A|--------9-----------6-----------2---------------------|
E|-7-7-7-7--7--4-4-4-4--4--0-0-0-0--0-------------------|

Chorus:

G|--------------------------------------------------|
D|--------------------------------------------------|
A|----9----9-------6----6-------2----2------4----4--|
E|-777-7-77-7---444-4-44-4---000-0-00-0--222-2-22-2-|

"Partying, partying, YEAH":

G|------------------------------------------------------|
D|------------------------------------------------------|
A|----9------------6--------------2----2--------4----4--|
E|-777-7-77-19\--444-4-44-16\--000-0-00-0----222-2-22-2-|

"Yesterday was Thursday..." (x indicates 11):
G|------------------------------------------------------------------|
D|-9999999999999999-------------------------------------------------|
A|-----------------yyyyyyyyyyyyyyyy77777777777777779999999999999999-|
E|------------------------------------------------------------------|

RAP BREAKDOWN!!!:

G|---------------------------------------------------|
D|---------------------------------------------------|
A|----9-9-9-9------6-6-6-6------2-2-2-2------4-4-4-4-|
E|-777-7-7-7----444-4-4-4----000-0-0-0----222-2-2-2--|

End with:

G|------|
D|------|
A|------|
E|-7\---|

-----------------------------------------|
-----------------------------------------|
| /  slide up
| \  slide down
| h  hammer-on
| p  pull-off
| ~  vibrato
| +  harmonic
| x  Mute note
            
Submit corrections

comments powered by Disqus
↑ Back to top | Rebecca Black Bass for Friday. Lyrics for acoustic guitar and electric guitar. Tablatures and chords are parodies/interpretations of the original songs. You may use it for private study, scholarship, research or language learning purposes only