» » »

Tonight Tabs (ver.1)

Artists:  A B C D E F G H I J K L M N O P Q R S T U V W X Y Z # 

Tonight Tabs (ver.1)

Reamonn
Rating:
0/5 (0 votes)

Hard to play? Try these video lessons and learn fast.
                Reamonn - Tonight    

Chords used: 
Em   022000
Am   x02210
D    xx0232
C    x32010
B    x24442
Bm   x24432



INTRO: 
    Em                      Am 
E||--15------14------------|------------------------|
B||----------------12------|--10------12----10------|
G||------------------------|------------------------|
D||------------------------|------------------------|
A||------------------------|------------------------|
E||------------------------|------------------------|

D                         Bm                       C
--17------15----14------|------------------------|--15------14------------|
------------------------|--12--------------------|----------------12------|
------------------------|----------12----11------|------------------------|
------------------------|------------------------|------------------------|
------------------------|------------------------|------------------------|
------------------------|------------------------|------------------------|

  Am                       D                         B        **
-----------------------|--19------17------14----|-----------14BR--12------|
--10-----------10------|------------------------|-------------------------|
----------9------------|------------------------|-------------------------|
-----------------------|------------------------|-------------------------|
-----------------------|------------------------|-------------------------|
-----------------------|------------------------|-------------------------|

**bend note and release


Em        Am                D
She never took the train alone
           Bm           C
she hated being on her own 
            Am             D
She always took me by the hands
     B
and say she needs me 


Em        Am                D
She never wanted love to fail
           Bm           C
she always hoped that it was real 
      Am               D
She'd look me in the eyes
    B
and say believe me 

Em           Am                D
And then the night becomes the day
              Bm           C
and there’s nothing left to say 
           Am                D
If there's nothing left to say
       B
then something’s wrong 


Em    Am           D                  Bm
Oh   tonight you killed me with your smile
      C           Am       B
so beautiful and wild so beautiful 
Em    Am          D                 Bm
Oh tonight you killed me with your smile
      C           Am       B           Em          
so beautiful and wild so beautiful and wild 


Em               Am                D
And as the hands would turn with time
              Bm                   C
she'd always say that she was my mine 
            Am              D
She'd turn and lend a smile
       B
to say that she's gone 


Em               Am         D
But in a whisper she'd arrive
      Bm            C
and dance into my life 
       Am          D
Like a music melody
      B
like a lovers song


Em    Am           D                  Bm
Oh   tonight you killed me with your smile
      C           Am       B
so beautiful and wild so beautiful 
Em    Am          D                 Bm
Oh tonight you killed me with your smile
      C           Am       B           Em          
so beautiful and wild so beautiful and wild 


B                   Em
Through the darkest night 
B                   Em
comes the brightest light
B                   Em
And the light that shines
           Em
is deep inside
            B
It's who you are


Em    Am           D                  Bm
Oh   tonight you killed me with your smile
      C           Am       B
so beautiful and wild so beautiful 
Em    Am          D                 Bm
Oh tonight you killed me with your smile
      C           Am       B           Em          
so beautiful and wild so beautiful and wild 
            
Hard to play? Try these video lessons and learn fast. | Correct




comments powered by Disqus
↑ Back to top | Tablatures and chords are parodies/interpretations of the original songs. You may use it for private study, scholarship, research or language learning purposes only