» » »

Reamonn, Life Is A Dream Bass tabs (ver.1)

Artists:  A B C D E F G H I J K L M N O P Q R S T U V W X Y Z # 

Life Is A Dream Bass tabs (ver.1)

Reamonn Tabs
 Rating:
4/5 (4 votes)
Life Is A Dream lessons Tabs too difficult? Try these video lessons and learn fast
1
                Reamonn - Life is a dream

Bass tab

Intro + Verse

G|---------------------------------------|
D|--------0000---------------------------|
A|33333333----3333-----------------------|
E|-----------------00000000000000000000--|




Bridge 

G|---------------------------------------------------------|
D|22222222--------22222222---------------------------------|
A|---------------------------------------------------------|
E|--------00000000--------00000000-------------------------|



Refrain

G|---------------------------------------------------------|
D|---------------------------------------------------------|
A|3333333333333333-----------------------------------------|
E|----------------000000000000000000-----------------------|


Intermezzo ("Life is a dream - to - me")

G|----------------------|---------------------|
D|0----2----------------|----0----2-----------|
A|----------3-----------|-------------(3) <-starts the verse
E|----------------------|---------------------|


Verse
Refrain

Intermezzo till End
G|---------------------------------|
D|0----2------------0----2---------|
A|---------3------------------3----|
E|---------------------------------|


G|-------------------------------------------------|
D|0000000022222222---------------------------------| repeat some times
A|----------------3333333333333333-----------------|
E|-------------------------------------------------|

G|---------------------------------|
D|0----2------------0----2---------|
A|---------3------------------3----|
E|---------------------------------| end. Thats it.

I'm not really shure about the bridge and the last notes of the verse
            
Submit corrections

comments powered by Disqus
↑ Back to top | Reamonn Bass for Life Is A Dream. Lyrics for acoustic guitar and electric guitar. 1 Tablatures and chords are parodies/interpretations of the original songs. You may use it for private study, scholarship, research or language learning purposes only