» » »

Real Mckenzies, Droppin' Like Flies Tabs (ver.1)

Artists:  A B C D E F G H I J K L M N O P Q R S T U V W X Y Z # 

Droppin' Like Flies Tabs (ver.1)

Real Mckenzies Tabs
Rating:
0/5 (0 votes)
Droppin' Like Flies lessons Tabs too difficult? Try these video lessons and learn fast
                

righty ive been hunting for a tab for this song for ages and couldnt find one
so ive decided to give it a bash myself, im pretty sure its damn near 100%,
maybe i could have tabbed the lead guitar an easier way but this is just how
i picked it up.
ill have a few other tabs up for various other stuff which i couldnt find tabs
for (or good tabs anyway)so check them out.
any questions or comments, you know what to do. adios
p.s if this tab is displaying funny paste it into word or something

--------------------------|----------------------|---------------------------|
--------------------------|----------------------|---------------------------|
-8888------10101010-------|-8888------10101010---|---------------------------|
-8888-8888-10101010--8888-|-8888-8888-10101010-8-|---------------------------|
-6666-8888--8-8-8-8--8888-|-6666-8888--8-8-8-8-8-|---------------------------|
------6666-----------6666-|------6666----------6-|---------------------------|
 guitar 1 intro + verse     end of intro to verse

-----------------------------------------------------------------------------|
-11-8---6--------------------11-8---6---------------11-8---6-----------------|
------8---7------7---------7------8---7------7-----------8---7------7--------|
------------8-10---10-8-10--------------8-10---10-8------------8-10---10-810-|
-----------------------------------------------------------------------------|
-----------------------------------------------------------------------------|
 guitar 2 intro (rest atverse)

---------------------------------|
---------------------------------|
--7-8-10-12-10-10---------7------|
------------------12-8-10---10-8-|
---------------------------------|
---------------------------------|


-------------------------|---------------------------|-----------------------|
-------------------------|---------------------------|-----------------------|
------8888------10101010-|-88888888-1010101010101010-|-----------------------|
-5555-8888-8888-10101010-|-88888888-1010101010101010-|-----------------------|
-5555-6666-8888--8-8-8-8-|-66666666--8-8-8-8-8-8-8-8-|-----------------------|
-3333------6666----------|---------------------------|-----------------------|
 chorus guitar 1 X3then>

-----------------------------------------------------------------------------|
-8-8-6-8-8-8-6-8-8-6------8-8-6-8-8-8-6-8-11-8------------8-8-6-8-8-8-6-8-6--|
---------------------7-10----------------------10-12-7-----------------------|
-------------------------------------------------------10--------------------|
-----------------------------------------------------------------------------|
-----------------------------------------------------------------------------|
 guitar2 chorus

-----------------------------------------------------------------------------|
---------6r------------------------------------------------------------------|
-7-10-8r---------------------------------------------------------------------|
-----------------------------------------------------------------------------|
-----------------------------------------------------------------------------|
-----------------------------------------------------------------------------|


-------------------------|---------------------------------------------------|
-------------------------|---------------------------------------------------|
------8888------10101010-|-88888888-1010101010101010-88888888------10101010--|
-5555-8888-8888-10101010-|-88888888-1010101010101010-88888888-8888-10101010--|
-5555-6666-8888--8-8-8-8-|-66666666--8-8-8-8-8-8-8-8-66666666-8888--8-8-8-8--|
-3333------6666----------|------------------------------------6666-----------|
 last chorus X3then>>>>

-----------------------------------------------------------------------------|
-----------------------------------------------------------------------------|
-88888888-1010101010101010---------------------------------------------------|
-88888888-1010101010101010-8-------------------------------------------------|
-66666666--8-8-8-8-8-8-8-8-8-------------------------------------------------|
---------------------------6-------------------------------------------------|
            
Submit corrections

comments powered by Disqus
↑ Back to top | Real Mckenzies Tabs for Droppin' Like Flies. Lyrics for acoustic guitar and electric guitar. Tablatures and chords are parodies/interpretations of the original songs. You may use it for private study, scholarship, research or language learning purposes only