» » »

Chip Tabs (ver.1)

Artists:  A B C D E F G H I J K L M N O P Q R S T U V W X Y Z # 

Chip Tabs (ver.1)

Real Mckenzies
Rating:
0/5 (0 votes)

Tabs too difficult? Try these video lessons and learn fast.
                Track: Chip
Tuning: Standard


I have not noted exactly how many times to play each note or part as it is a simple 
song. Have fun.


INTRO/VERSE PART 1

e------------|
B------------|
G--5--8-7-5--|
D--5--8-7-5--|
A--3--6-5-3--|
E------------|

VERSE PART 2

e---------------|
B---------------|
G--5--7--8--10--|
D--5--X--X--X---|
A--3--5--6--8---|
E---------------|

e---------------------|
B---------------------|
G--5--8--10--8--7--5--|
D--5--X--X---8--7--5--|
A--3--6--8---6--5--3--|
E---------------------|

PRE-CHORUS

e--------------|
B--------------|
G--------------|
D--6--8--6--3--|
A--6--8--6--3--|
E--4--6--4--1--|

REPEAT INTRO/VERSE PARTS/PRE-CHORUS

CHORUS

e--------------|
B--------------|
G--5--8--------|
D--5--8--6--8--|
A--3--6--6--8--|
E--------4--6--|

e-----------|
B-----------|
G--5--------|
D--5--6--5--|
A--3--6--5--|
E-----4--3--|

INTERLUDE

e------------------|
B------------------|
G--5--7--8--12--8--|
D--X--X--X--X---X--|
A--3--5--6--10--6--|
E------------------|

e-----------|
B-----------|
G--------5--|
D--5--8--5--|
A--5--8--3--|
E--3--6-----|

INTRO

VERSE PARTS

PRE-CHORUS

CHORUS

END ON:

e-----|
B-----|
G--5--|
D--5--|
A--3--|
E-----|
            
Tabs too difficult? Try these video lessons and learn fast.




comments powered by Disqus
↑ Back to top | Tablatures and chords are parodies/interpretations of the original songs. You may use it for private study, scholarship, research or language learning purposes only