>
 >
Queen Babylon

Queen Babylon Guitar Tabs

Reagan Youth - Queen Babylon chords, tabs, tablatures, lyrics

Guitar lessons | Add/correct | Request | Top 50 tabs Artists:  A B C D E F G H I J K L M N O P Q R S T U V W X Y Z 0-9

Queen Babylon Guitar Tabs – Reagan Youth

CD, Sheet music, Poster

Do you like Queen Babylon? Share with your friends now
Tabs
----------------------------------------------------------------------------
                             Queen Babylon  Reagan Youth
----------------------------------------------------------------------------

Tuning: Standard

Intro (you cand get the strumming pattern):                             X2
e|---------------------------------------------------------------------------|
B|---------------------------------------------------------------------------|
G|-9--------9--------9------------7------------------------------------------|
D|-9---10---9---10---9---10---7---7-------------------------------------|----|
A|-7---10---7---10---7---10---7---5-------------------------------------| ---|
E|-----8--------8--------8----5-----------------------------------------| ---|
                                                                           |(second time 
vv                                                      |
e|----------------------------------------------------------------------| ---|
B|----------------------------------------------------------------------| ---|
G|----------------------------------------------------------------------|----|
D|--------------------------------7b-----------------------------------------|
A|---------------------------------------------------------------------------|
E|---------------------------------------------------------------------------|

  Verse:
e|----------------------------------------------------------------------|
B|----------------------------------------------------------------------|
G|--9-------------7-----------------------------------------------------|
D|--9---10---7----7-----------------------------------------------------|
A|--7---10---7----5-----------------------------------------------------|
E|------8----5----------------------------------------------------------|

 For the chorus, just hit the E5 and C5 chords, then instead of playing the A5 or D5 
put in the following fills.

 First Chorus:
e|---------|---------------------------|--------------------------------|
B|---------|-10tr13--13br-10--13br--10-|--------------------------------|
G|---------|---------------------------|-------5-7----------------------|
D|---5tr7--|---------------------------|--5tr7-----5--------------------|
A|---------|---------------------------|-------------5-3-5-3-5-3--------|
E|---------|---------------------------|-------------------------5------|

e|----------------------------------------------------------------------|
B|----------------------------------------------------------------------|
G|----------------------------------------------------------------------|
D|---5b-5b-5b-5b--------------------------------------------------------|
A|-----------------/7\--------------------------------------------------|
E|----------------------------------------------------------------------|

  First solo:
e|----------------------------------------------------------------------|
B|----------------------------------------------------------------------|
G|-------------------14p12----------------------------------------------|
D|-12h14-12h14-12h14-------14p12-14p12----------------------------------|
A|-------------------------------------14p12----12-------------------10-|
E|-------------------------------------------15----12p10p8\5/8h10h12----|

e|----------------------------------------------------------------------|
B|-------------------------------------------------15--15---------------|
G|-------------------------------------------------14b-14b--14h12---12--|
D|----------10-12brh10---------------------12---12----------------14----|
A|----10-12------------12---------10h12/14---14-------------------------|
E|-12-----------------------10h12---------------------------------------|

e|----------------------------------------------------------------------|
B|----------------------------------------------------------------------|
G|---------------------------------------------------12-14p12-------14b-|
D|-14-14h12----12-----------------12b----12h14-12h14----------14-14-----|
A|----------14----14-12---------12b-------------------------------------|
E|----------------------15-12-15----------------------------------------|

e|----------------------------------------------------------------------|
B|--------------------------------------------------------------12------|
G|-14p12-------14b-14h12-------14b-14p12--------14b-14p12-------14br----|
D|-------14-14-----------14-14------------14-14-----------14-14---------|
A|----------------------------------------------------------------------|
E|----------------------------------------------------------------------|

e|----------------------------------------------15b-15b-12h15p12--------|
B|-------------5-5/8-8/10-10/12-12p15-15b-15-12-----------------15-12---|
G|-12----12-------------------------------------------------------------|
D|----14----14----------------------------------------------------------|
A|----------------------------------------------------------------------|
E|----------------------------------------------------------------------|

e|----------------------------------------------------------------------|
B|----15-----12---------------------------------------------------------|
G|-14----14--14b-14b-14b-14p12------------------------------------------|
D|-----------------------------14-14------------------------------------|
A|----------------------------------------------------------------------|
E|----------------------------------------------------------------------|

  Second Chorus (for the first fill of the second chorus, omit the E5 and C5 chords and 
straight to the fill):
e|------|----------------------------|----------------------------------|
B|------|----------------------------|-------10--10---------------------|
G|------|-------------------5-7brp5--|12br-9-12b-12brp9-----------------|
D|12tr14|--------5-7p5--5h7---------7|-----------------12b-12b-12brp10--|
A|------|---3-5/7------7-------------|--------------------------------12|
E|------|3h5-------------------------|----------------------------------|

e|----------------------------------------------------------------------|
B|----------------------------------------------------------------------|
G|----------------------------------------------------------------------|
D|-5tr7-----------------------------------------------------------------|
A|----------------------------------------------------------------------|
E|----------------------------------------------------------------------|

 Repeat Verse

  Third Chorus:
e|--------------------------|-------------------------------------------|
B|-10tr13-13b-13b-13b-13p10-|-------------------------------13-15brp13--|
G|--------------------------|--------------12-14p12----12-14----------14|
D|--------------------------|-----10-12/14----------14------------------|
A|--------------------------|10h12--------------------------------------|
E|--------------------------|-------------------------------------------|

e|-----------------------|----------------------------------------------|
B|-----------------------|---------------------8h10p8-------------------|
G|-----------------------|--7br-7br-----5--7h9--------9-----------------|
D|-5tr7-5b-5b-5b-5b-5b-5b|-7--------5h7--7------------------------------|
A|-----------------------|----------------------------------------------|
E|-----------------------|----------------------------------------------|

  Bridge:
e|----------------------------------------------------------------------|
B|----------------------------------------------------------------------|
G|-9--------9--------9------------7-------------------------------------|
D|-9---10---9---10---9---10---7---7-------------------------------------|
A|-7---10---7---10---7---10---7---5-------------------------------------|
E|-----8--------8--------8----5-----------------------------------------|

  Second Solo:        X4
e|-------------------|
B|-------------------|
G|-------------------|
D|-------------5-----|
A|-7-7-7-7-5-7---7-5-|
E|-------------------|

e|----------------------------------------------------------------------|
B|----------(12)--------------------------------------------------------|
G|-(12)-----(12)--------------------------------------------------------|
D|-(12)------------------12----12-12br-br-b-12b-12-9--------------------|
A|-------------------/14----14-----------------------12-10-12-10--------|
E|---------------------------------------------------------------12-10\7|

e|-----------------------------------------------------------12---------|
B|---------------------------15---15b-15-15br-15br-15b-15b-15--15-12----|
G|-----------------------14b---14b----------------------------------14p-|
D|-----------------12h14------------------------------------------------|
A|--------10h12/14------------------------------------------------------|
E|-/10h12---------------------------------------------------------------|

e|--------------15b-15b-15b-15br-12-------------------------------------|
B|----------------------------------15-15b-15b--------------------------|
G|-p12----12------------------------------------------------------------|
D|-----14----14---------------------------------------------------------|
A|----------------------------------------------------------------------|
E|----------------------------------------------------------------------|
                        X4
e|---------------------|
B|---------------------|
G|-----------0h2p0-----|
D|-2-2-2-2-2-------2-0-|
A|---------------------|
E|---------------------|

e|----------------------------------------|
B|---------------3-------------5----------|
G|---2brp0---------3---5p3---4b-4r-2-4b---|
D|-2-------2-0-2-----5-----5--------------|
A|----------------------------------------|
E|----------------------------------------|

e|----------17----------------------------------------------------------|
B|-17-19-19b--19r-17----------------------------------------------15----|
G|-------------------------------------------14b-14brp12----12h14----14b|
D|--------------------9tr12-12b--7b-7brp5----------------14-------------|
A|----------------------------------------7-----------------------------|
E|----------------------------------------------------------------------|

e|---------------12--10--7----------------------------------------------|
B|---------------12--10--7----------------------------------------------|
G|-12-14p12---14b----------9-7------------------------------7---7-9-7---|
D|---------14------------------9-7h9p7--7--5-7-7b-7brp5-----7-9-7---7-9-|
A|------------------------------------10-7------------------------------|
E|----------------------------------------------------------------------|

e|----------------------------------------------------------------------|
B|-----------------I'm sorry but I have no idea what he's playing-------|
G|------------------on 4:11 through 4:14. If you know, or can figure----|
D|-7------------------it out, feel free to post it.---------------------|
A|---10-7-10------------------------------------------------------------|
E|----------------------------------------------------------------------|

 Starting at 4:14
e|-15b-12tr15-----------------------------------------------------------|
B|------------15-12-15-15br-15p12--------------15----15-----------------|
G|--------------------------------14-12--12-14b---14b---14brp12h14p12---|
D|-------------------------------------14----------------------------14-|
A|----------------------------------------------------------------------|
E|----------------------------------------------------------------------|

e|-------15--16---17--18--19---19t--------------------------------------|
B|----------------------------------------------------------------------|
G|-12p14---15--16---17--18--19-19t--------------------------------------|
D|----------------------------------------------------------------------|
A|----------------------------------------------------------------------|
E|----------------------------------------------------------------------|
                       X4
e|---------------------|
B|---------------------|
G|-----------0h2p0-----|
D|-2-2-2-2-2-------2-0-|
A|---------------------|
E|---------------------|

e|----------------------------------------|
B|---------------3-------------5----------|
G|---2brp0---------3---5p3---4b-4r-2-4b---|
D|-2-------2-0-2-----5-----5--------------|
A|----------------------------------------|
E|----------------------------------------|

e|-----------------------------------------------------------------------|
B|-------------------------------------------------5p3p0--3tr5-/8--------|
G|-0-2-0-2br-br-br-br-b-2br-0tr2--------------0-2h4---------------7h9p7h9|
D|-------------------------------2-0---------2---------------------------|
A|-----------------------------------2-0---------------------------------|
E|---------------------------------------3p0-----------------------------|

e|-------------------12---12--------------------------------------------|
B|-8-8-10brp8-10--------------------------------------------------------|
G|--9--------9----14b--14b--14br12h14p12--------------------------------|
D|--------------------------------------14-14p12------------------------|
A|----------------------------------------------14-12\10-12sbh10--------|
E|---------------------------------------------------------------12-----|

e|-----12--12--12--12-14p12---------------------------------------------|
B|-----15b-15b-15b----------15-12---------------------------------------|
G|-/14----------------------------14-12p14-----7------------7-----------|
D|-------------------------------------------7b-7r-5--5-7/9---9---------|
A|---------------------------------------------------7------------------|
E|----------------------------------------------------------------------|

e|-------------------------------------12t-14t-15t-14t-12t--------------|
B|--------------------------12t-14t-15t-------------------15t-12t-------|
G|----------7h9p7--7h9---14t-------------------------------------14t-12t|
D|----5-7/9------9------------------------------------------------------|
A|-5h7------------------------------------------------------------------|
E|----------------------------------------------------------------------|

e|--------------------------------------------------|
B|--------------------------------------------------|
G|--------------------------------------------------|
D|-14t-12t------5h7p5-5-7sb-5-----------------------|
A|---------14t-------7--------7---------------------|
E|--------------------------------------------------|
                       X4
e|---------------------|
B|---------------------|
G|-----------0h2p0-----|
D|-2-2-2-2-2-------2-0-|
A|---------------------|
E|---------------------|

| t  tremelo pick
| tr trill
| b  bend
| sb slight bend
| r  release
| /  slide up
| \  slide down
| h  hammer-on
| p  pull-off
| ~  vibrato
| (9)harmonic
| x  Mute note
============================================================================





Comments


Popular Reagan Youth tabs & chords
In Dog We Trust Chords
New Aryans Chords
What Will The Neighbors Think? Chords
Go Nowhere Tabs
Happy? Tabs
I Hate Hate Tabs
Jesus Was A Communist Tabs
Reagan Youth Tabs
U.S.A 1 Tabs
New Aryans Ukulele


Song lyrics



↑ Back to top | Tablatures and chords are parodies/interpretations of the original songs. You may use it for private study, scholarship, research or language learning purposes only
© 2014 AZChords.com Contact us | Privacy policy | DMCA | Add/correct tabs | Request tabs | Top 50 tabs