» » »

Reagan Youth, Jesus Was A Communist Tabs (ver.1)

Artists:  A B C D E F G H I J K L M N O P Q R S T U V W X Y Z # 

Jesus Was A Communist Tabs (ver.1)

Reagan Youth Tabs
 Rating:
3.8/5 (5 votes)
Jesus Was A Communist lessons Tabs too difficult? Try these video lessons and learn fast
1
                -------------------------------------------------------------------------------
-------------------------------------------------------------------------------

Tuning: Standard



Intro (picking or tapping):
  
e|---------------------------------------------------------------------------|
B|---------------------------------------------------------------------------|
G|---------------------------------------------------------------------------|
D|---7p0-(x8)-8p0-(x8)-9p0-(x8)-5p0-(x8)-7p0-(x8)-8p0-(x8)-9p0-(x8)-10~~~----|
A|---------------------------------------------------------------------------|
E|------------------------------------------------------------------------12/|

e|---------------------------------------------------------------------------|
B|---------------------------------------------------------------------------|
G|---------------------------------------------------------------------------|
D|-9--7-7--9--9------10~--------9--7-7--9--9---------------------------------|
A|-9--7-7--9--9--7h8------8/----9--7-7--9--9--7h8p7h8p7h8p7h8p7h8p7h8p7h8p7--|
E|-7--5-5--7--7-----------------7--5-5--7--7---------------------------------|

Verse:
 
e|---------------------------------------------------------------------------|
B|---------------------------------------------------------------------------|
G|---------------------------------------------------------------------------|
D|-9--7-7--9--9------10~---------9--7-7--9--9--------------------------------|
A|-9--7-7--9--9--7h8------8/-----9--7-7--9--9--7h8p7-------------------------|
E|-7--5-5--7--7------------------7--5-5--7--7--------8-8-7/------------------|

e|---------------------------------------------------------------------------|
B|---------------------------------------------------------------------------|
G|---------------------------------------------------------------------------|
D|-9--7-7--9--9------10~---------9--7-7--9--9--------------------------------|
A|-9--7-7--9--9--7h8------8/-----9--7-7--9--9--7h8p7-------------------------|
E|-7--5-5--7--7------------------7--5-5--7--7--------8-8-7/------------------|

Fill:
e|-----------------------------------12-12-15p12-----------------------------|
B|---------------------------------------------15p13p12---12-----------------|
G|-9--9-9--9-9--10-10------9--9------------------------14p12-----------------|
D|-9--9-9--9-9--10-10--9---9--9----------------------------------------------|
A|-7--7-7--7-7--8--8---9---7--7----------------------------------------------|
E|---------------------7-----------------------------------------------------|

e|---------------------------------------------------------------------------|
B|---------------------------------------------------------------------------|
G|-9--9-9--9-9--10-10------9--9----------------------------------------------|
D|-9--9-9--9-9--10-10--9---9--9----------------------------------------------|
A|-7--7-7--7-7--8--8---9---7--7--7/10\77h8p7h8p7h8p7h8p7h8p7h8p7h8p7---------|
E|---------------------7-----------------------------------------------------|

Verse:
 
e|---------------------------------------------------------------------------|
B|---------------------------------------------------------------------------|
G|---------------------------------------------------------------------------|
D|-9--7-7--9--9------10~---------9--7-7--9--9--------------------------------|
A|-9--7-7--9--9--7h8------8/-----9--7-7--9--9--7h8p7-------------------------|
E|-7--5-5--7--7------------------7--5-5--7--7--------8-8-7/------------------|

e|---------------------------------------------------------------------------|
B|---------------------------------------------------------------------------|
G|---------------------------------------------------------------------------|
D|-9--7-7--9--9------10~---------9--7-7--9--9--------------------------------|
A|-9--7-7--9--9--7h8------8/-----9--7-7--9--9--7h8p7-------------------------|
E|-7--5-5--7--7------------------7--5-5--7--7--------8-8-7/------------------|

Solo:
e|---------------------------------------------------------------------------|
B|---------------------------------------------------------------------------|
G|---------------------------------------------------------------------------|
D|---7p0-(x8)-8p0-(x8)-9p0-(x8)-5p0-(x8)-7p0-(x8)-8p0-(x8)-9p0-(x8)-10~~~----|
A|---------------------------------------------------------------------------|
E|---------------------------------------------------------------------------|

e|---------------------------------------------------------------------------|
B|--12--12--12--15^--15^-----------------------------------------------------|
G|--14^-14^ 14^----------(i'm too lazy to tab out the rest if you can play---|
D|------------------------the solo you wont have a problem figuring out------|
A|---------------------------------------------------the rest..)-------------|
E|---------------------------------------------------------------------------|


| /  slide up
| \  slide down
| h  hammer-on
| p  pull-off
| ~  vibrato
| ^  bend

===============================================================================
            
Submit corrections

comments powered by Disqus
↑ Back to top | Reagan Youth Tabs for Jesus Was A Communist. Lyrics for acoustic guitar and electric guitar. 1 Tablatures and chords are parodies/interpretations of the original songs. You may use it for private study, scholarship, research or language learning purposes only